  0
SECTION
  2
HEADER
  9
$ACADVER
  1
AC1018
  9
$ACADMAINTVER
 70
     0
  9
$DWGCODEPAGE
  3
ANSI_1252
  9
$INSBASE
 10
0.0
 20
0.0
 30
0.0
  9
$EXTMIN
 10
-0.5
 20
-0.5
 30
-0.5
  9
$EXTMAX
 10
5.0
 20
5.0
 30
5.0
  9
$LIMMIN
 10
-0.5
 20
-0.5
  9
$LIMMAX
 10
5.0
 20
5.0
  9
$ORTHOMODE
 70
     0
  9
$REGENMODE
 70
     1
  9
$FILLMODE
 70
     1
  9
$QTEXTMODE
 70
     0
  9
$MIRRTEXT
 70
     1
  9
$LTSCALE
 40
1.0
  9
$ATTMODE
 70
     1
  9
$TEXTSIZE
 40
0.2
  9
$TRACEWID
 40
0.05
  9
$TEXTSTYLE
  7
Standard
  9
$CLAYER
  8
0
  9
$CELTYPE
  6
ByLayer
  9
$CECOLOR
 62
   256
  9
$CELTSCALE
 40
1.0
  9
$DISPSILH
 70
     0
  9
$DIMSCALE
 40
1.0
  9
$DIMASZ
 40
0.18
  9
$DIMEXO
 40
0.0625
  9
$DIMDLI
 40
0.38
  9
$DIMRND
 40
0.0
  9
$DIMDLE
 40
0.0
  9
$DIMEXE
 40
0.18
  9
$DIMTP
 40
0.0
  9
$DIMTM
 40
0.0
  9
$DIMTXT
 40
0.18
  9
$DIMCEN
 40
0.09
  9
$DIMTSZ
 40
0.0
  9
$DIMTOL
 70
     0
  9
$DIMLIM
 70
     0
  9
$DIMTIH
 70
     1
  9
$DIMTOH
 70
     1
  9
$DIMSE1
 70
     0
  9
$DIMSE2
 70
     0
  9
$DIMTAD
 70
     0
  9
$DIMZIN
 70
     0
  9
$DIMBLK
  1

  9
$DIMASO
 70
     1
  9
$DIMSHO
 70
     1
  9
$DIMPOST
  1

  9
$DIMAPOST
  1

  9
$DIMALT
 70
     0
  9
$DIMALTD
 70
     2
  9
$DIMALTF
 40
25.4
  9
$DIMLFAC
 40
1.0
  9
$DIMTOFL
 70
     0
  9
$DIMTVP
 40
0.0
  9
$DIMTIX
 70
     0
  9
$DIMSOXD
 70
     0
  9
$DIMSAH
 70
     0
  9
$DIMBLK1
  1

  9
$DIMBLK2
  1

  9
$DIMSTYLE
  2
Standard
  9
$DIMCLRD
 70
     0
  9
$DIMCLRE
 70
     0
  9
$DIMCLRT
 70
     0
  9
$DIMTFAC
 40
1.0
  9
$DIMGAP
 40
0.09
  9
$DIMJUST
 70
     0
  9
$DIMSD1
 70
     0
  9
$DIMSD2
 70
     0
  9
$DIMTOLJ
 70
     1
  9
$DIMTZIN
 70
     0
  9
$DIMALTZ
 70
     0
  9
$DIMALTTZ
 70
     0
  9
$DIMUPT
 70
     0
  9
$DIMDEC
 70
     4
  9
$DIMTDEC
 70
     4
  9
$DIMALTU
 70
     2
  9
$DIMALTTD
 70
     2
  9
$DIMTXSTY
  7
Standard
  9
$DIMAUNIT
 70
     0
  9
$DIMADEC
 70
     0
  9
$DIMALTRND
 40
0.0
  9
$DIMAZIN
 70
     0
  9
$DIMDSEP
 70
    46
  9
$DIMATFIT
 70
     3
  9
$DIMFRAC
 70
     0
  9
$DIMLDRBLK
  1

  9
$DIMLUNIT
 70
     2
  9
$DIMLWD
 70
    -2
  9
$DIMLWE
 70
    -2
  9
$DIMTMOVE
 70
     0
  9
$LUNITS
 70
     2
  9
$LUPREC
 70
     4
  9
$SKETCHINC
 40
0.1
  9
$FILLETRAD
 40
0.5
  9
$AUNITS
 70
     0
  9
$AUPREC
 70
     0
  9
$MENU
  1
.
  9
$ELEVATION
 40
0.0
  9
$PELEVATION
 40
0.0
  9
$THICKNESS
 40
0.0
  9
$LIMCHECK
 70
     0
  9
$CHAMFERA
 40
0.0
  9
$CHAMFERB
 40
0.0
  9
$CHAMFERC
 40
0.0
  9
$CHAMFERD
 40
0.0
  9
$SKPOLY
 70
     0
  9
$TDCREATE
 40
2460054.385157743
  9
$TDUCREATE
 40
2460054.30182441
  9
$TDUPDATE
 40
2460054.385157928
  9
$TDUUPDATE
 40
2460054.301824595
  9
$TDINDWG
 40
0.0000000116
  9
$TDUSRTIMER
 40
0.0000000116
  9
$USRTIMER
 70
     1
  9
$ANGBASE
 50
0.0
  9
$ANGDIR
 70
     0
  9
$PDMODE
 70
     0
  9
$PDSIZE
 40
0.0
  9
$PLINEWID
 40
0.0
  9
$SPLFRAME
 70
     0
  9
$SPLINETYPE
 70
     6
  9
$SPLINESEGS
 70
     8
  9
$HANDSEED
  5
1BA
  9
$SURFTAB1
 70
     6
  9
$SURFTAB2
 70
     6
  9
$SURFTYPE
 70
     6
  9
$SURFU
 70
     6
  9
$SURFV
 70
     6
  9
$UCSBASE
  2

  9
$UCSNAME
  2

  9
$UCSORG
 10
0.0
 20
0.0
 30
0.0
  9
$UCSXDIR
 10
1.0
 20
0.0
 30
0.0
  9
$UCSYDIR
 10
0.0
 20
1.0
 30
0.0
  9
$UCSORTHOREF
  2

  9
$UCSORTHOVIEW
 70
     0
  9
$UCSORGTOP
 10
0.0
 20
0.0
 30
0.0
  9
$UCSORGBOTTOM
 10
0.0
 20
0.0
 30
0.0
  9
$UCSORGLEFT
 10
0.0
 20
0.0
 30
0.0
  9
$UCSORGRIGHT
 10
0.0
 20
0.0
 30
0.0
  9
$UCSORGFRONT
 10
0.0
 20
0.0
 30
0.0
  9
$UCSORGBACK
 10
0.0
 20
0.0
 30
0.0
  9
$PUCSBASE
  2

  9
$PUCSNAME
  2

  9
$PUCSORG
 10
0.0
 20
0.0
 30
0.0
  9
$PUCSXDIR
 10
1.0
 20
0.0
 30
0.0
  9
$PUCSYDIR
 10
0.0
 20
1.0
 30
0.0
  9
$PUCSORTHOREF
  2

  9
$PUCSORTHOVIEW
 70
     0
  9
$PUCSORGTOP
 10
0.0
 20
0.0
 30
0.0
  9
$PUCSORGBOTTOM
 10
0.0
 20
0.0
 30
0.0
  9
$PUCSORGLEFT
 10
0.0
 20
0.0
 30
0.0
  9
$PUCSORGRIGHT
 10
0.0
 20
0.0
 30
0.0
  9
$PUCSORGFRONT
 10
0.0
 20
0.0
 30
0.0
  9
$PUCSORGBACK
 10
0.0
 20
0.0
 30
0.0
  9
$USERI1
 70
     0
  9
$USERI2
 70
     0
  9
$USERI3
 70
     0
  9
$USERI4
 70
     0
  9
$USERI5
 70
     0
  9
$USERR1
 40
0.0
  9
$USERR2
 40
0.0
  9
$USERR3
 40
0.0
  9
$USERR4
 40
0.0
  9
$USERR5
 40
0.0
  9
$WORLDVIEW
 70
     1
  9
$SHADEDGE
 70
     3
  9
$SHADEDIF
 70
    70
  9
$TILEMODE
 70
     1
  9
$MAXACTVP
 70
    64
  9
$PINSBASE
 10
0.0
 20
0.0
 30
0.0
  9
$PLIMCHECK
 70
     0
  9
$PEXTMIN
 10
-0.5
 20
-0.5
 30
-0.5
  9
$PEXTMAX
 10
5.0
 20
5.0
 30
5.0
  9
$PLIMMIN
 10
-0.5
 20
-0.5
  9
$PLIMMAX
 10
5.0
 20
5.0
  9
$UNITMODE
 70
     0
  9
$VISRETAIN
 70
     1
  9
$PLINEGEN
 70
     0
  9
$PSLTSCALE
 70
     1
  9
$TREEDEPTH
 70
  3020
  9
$CMLSTYLE
  2
Standard
  9
$CMLJUST
 70
     0
  9
$CMLSCALE
 40
1.0
  9
$PROXYGRAPHICS
 70
     1
  9
$MEASUREMENT
 70
     1
  9
$CELWEIGHT
370
    18
  9
$ENDCAPS
280
     0
  9
$JOINSTYLE
280
     0
  9
$LWDISPLAY
290
     1
  9
$INSUNITS
 70
     4
  9
$HYPERLINKBASE
  1

  9
$STYLESHEET
  1

  9
$XEDIT
290
     1
  9
$CEPSNTYPE
380
     0
  9
$PSTYLEMODE
290
     1
  9
$FINGERPRINTGUID
  2
{53F7A777-6583-4976-ADC8-833449D862FE}
  9
$VERSIONGUID
  2
{FAEB1C32-E019-11D5-929B-00C0DF256EC4}
  9
$EXTNAMES
290
     1
  9
$PSVPSCALE
 40
0.0
  9
$OLESTARTUP
290
     0
  9
$SORTENTS
280
   127
  9
$INDEXCTL
280
     0
  9
$HIDETEXT
280
     1
  9
$XCLIPFRAME
290
     0
  9
$HALOGAP
280
     0
  9
$OBSCOLOR
 70
   257
  9
$OBSLTYPE
280
     0
  9
$INTERSECTIONDISPLAY
280
     0
  9
$INTERSECTIONCOLOR
 70
   257
  9
$DIMASSOC
280
     2
  9
$PROJECTNAME
  1

  0
ENDSEC
  0
SECTION
  2
CLASSES
  0
CLASS
  1
ACDBDICTIONARYWDFLT
  2
AcDbDictionaryWithDefault
  3
ObjectDBX Classes
 90
        0
 91
        3
280
     0
281
     0
  0
CLASS
  1
VISUALSTYLE
  2
AcDbVisualStyle
  3
ObjectDBX Classes
 90
     4095
 91
        3
280
     0
281
     0
  0
CLASS
  1
MATERIAL
  2
AcDbMaterial
  3
ObjectDBX Classes
 90
     1153
 91
        3
280
     0
281
     0
  0
CLASS
  1
SCALE
  2
AcDbScale
  3
ObjectDBX Classes
 90
     1153
 91
        3
280
     0
281
     0
  0
CLASS
  1
TABLESTYLE
  2
AcDbTableStyle
  3
ObjectDBX Classes
 90
     4095
 91
        3
280
     0
281
     0
  0
CLASS
  1
MLEADERSTYLE
  2
AcDbMLeaderStyle
  3
ACDB_MLEADERSTYLE_CLASS
 90
     4095
 91
        3
280
     0
281
     0
  0
CLASS
  1
SUN
  2
AcDbSun
  3
SCENEOE
 90
     1153
 91
        3
280
     0
281
     0
  0
CLASS
  1
DICTIONARYVAR
  2
AcDbDictionaryVar
  3
ObjectDBX Classes
 90
        0
 91
        3
280
     0
281
     0
  0
CLASS
  1
CELLSTYLEMAP
  2
AcDbCellStyleMap
  3
ObjectDBX Classes
 90
     1152
 91
        3
280
     0
281
     0
  0
ENDSEC
  0
SECTION
  2
TABLES
  0
TABLE
  2
VPORT
  5
8
102
{ACAD_XDICTIONARY
360
173
102
}
330
0
100
AcDbSymbolTable
 70
    16
  0
VPORT
  5
29
330
8
100
AcDbSymbolTableRecord
100
AcDbViewportTableRecord
  2
*Active
 70
     0
 10
0.0
 20
0.0
 11
1.0
 21
1.0
 12
550.77249
 22
502.9423
 13
0.0
 23
0.0
 14
0.5
 24
0.5
 15
0.5
 25
0.5
 16
0.0
 26
0.0
 36
1.0
 17
0.0
 27
0.0
 37
0.0
 40
256.910417
 41
0.069117
 42
50.0
 43
1078.725169
 44
-1078.725169
 50
0.0
 51
0.0
 71
     0
 72
   100
 73
     1
 74
     3
 75
     0
 76
     0
 77
     0
 78
     0
281
     0
 65
     1
110
0.0
120
0.0
130
0.0
111
1.0
121
0.0
131
0.0
112
0.0
122
1.0
132
0.0
 79
     0
146
0.0
  0
VPORT
  5
164
330
8
100
AcDbSymbolTableRecord
100
AcDbViewportTableRecord
  2
L1
 70
     0
 10
0.0
 20
0.0
 11
1.0
 21
1.0
 12
550.77249
 22
502.9423
 13
0.0
 23
0.0
 14
0.5
 24
0.5
 15
0.5
 25
0.5
 16
0.0
 26
0.0
 36
1.0
 17
0.0
 27
0.0
 37
0.0
 40
256.910417
 41
0.069117
 42
50.0
 43
1078.725169
 44
-1078.725169
 50
0.0
 51
0.0
 71
     0
 72
   100
 73
     1
 74
     3
 75
     0
 76
     0
 77
     0
 78
     0
281
     0
 65
     1
110
0.0
120
0.0
130
0.0
111
1.0
121
0.0
131
0.0
112
0.0
122
1.0
132
0.0
 79
     0
146
0.0
  0
VPORT
  5
165
330
8
100
AcDbSymbolTableRecord
100
AcDbViewportTableRecord
  2
L2
 70
     0
 10
0.0
 20
0.0
 11
0.5
 21
1.0
 12
0.0
 22
0.0
 13
0.0
 23
0.0
 14
0.5
 24
0.5
 15
0.5
 25
0.5
 16
0.0
 26
-1.0
 36
0.0
 17
0.0
 27
0.0
 37
0.0
 40
1599.038483
 41
0.011105
 42
50.0
 43
822.955166
 44
-822.955166
 50
0.0
 51
0.0
 71
     0
 72
   100
 73
     1
 74
     3
 75
     0
 76
     0
 77
     0
 78
     0
281
     0
 65
     1
110
0.0
120
0.0
130
0.0
111
1.0
121
0.0
131
0.0
112
0.0
122
1.0
132
0.0
 79
     0
146
0.0
  0
VPORT
  5
166
330
8
100
AcDbSymbolTableRecord
100
AcDbViewportTableRecord
  2
L2
 70
     0
 10
0.5
 20
0.0
 11
1.0
 21
1.0
 12
0.0
 22
0.0
 13
0.0
 23
0.0
 14
0.5
 24
0.5
 15
0.5
 25
0.5
 16
1.0
 26
0.0
 36
0.0
 17
0.0
 27
0.0
 37
0.0
 40
1599.038483
 41
0.011105
 42
50.0
 43
809.772658
 44
-809.772658
 50
0.0
 51
0.0
 71
     0
 72
   100
 73
     1
 74
     3
 75
     0
 76
     0
 77
     0
 78
     0
281
     0
 65
     1
110
0.0
120
0.0
130
0.0
111
1.0
121
0.0
131
0.0
112
0.0
122
1.0
132
0.0
 79
     0
146
0.0
  0
VPORT
  5
167
330
8
100
AcDbSymbolTableRecord
100
AcDbViewportTableRecord
  2
L3
 70
     0
 10
0.0
 20
0.5
 11
1.0
 21
1.0
 12
550.77249
 22
502.9423
 13
0.0
 23
0.0
 14
0.5
 24
0.5
 15
0.5
 25
0.5
 16
0.0
 26
0.0
 36
1.0
 17
0.0
 27
0.0
 37
0.0
 40
256.910417
 41
0.069117
 42
50.0
 43
1078.725169
 44
-1078.725169
 50
0.0
 51
0.0
 71
     0
 72
   100
 73
     1
 74
     3
 75
     0
 76
     0
 77
     0
 78
     0
281
     0
 65
     1
110
0.0
120
0.0
130
0.0
111
1.0
121
0.0
131
0.0
112
0.0
122
1.0
132
0.0
 79
     0
146
0.0
  0
VPORT
  5
168
330
8
100
AcDbSymbolTableRecord
100
AcDbViewportTableRecord
  2
L3
 70
     0
 10
0.0
 20
0.0
 11
1.0
 21
0.5
 12
0.0
 22
0.0
 13
0.0
 23
0.0
 14
0.5
 24
0.5
 15
0.5
 25
0.5
 16
0.0
 26
-1.0
 36
0.0
 17
0.0
 27
0.0
 37
0.0
 40
1599.038483
 41
0.011105
 42
50.0
 43
822.955166
 44
-822.955166
 50
0.0
 51
0.0
 71
     0
 72
   100
 73
     1
 74
     3
 75
     0
 76
     0
 77
     0
 78
     0
281
     0
 65
     1
110
0.0
120
0.0
130
0.0
111
1.0
121
0.0
131
0.0
112
0.0
122
1.0
132
0.0
 79
     0
146
0.0
  0
VPORT
  5
169
330
8
100
AcDbSymbolTableRecord
100
AcDbViewportTableRecord
  2
L4
 70
     0
 10
0.0
 20
0.5
 11
0.5
 21
1.0
 12
550.77249
 22
502.9423
 13
0.0
 23
0.0
 14
0.5
 24
0.5
 15
0.5
 25
0.5
 16
0.0
 26
0.0
 36
1.0
 17
0.0
 27
0.0
 37
0.0
 40
256.910417
 41
0.069117
 42
50.0
 43
1078.725169
 44
-1078.725169
 50
0.0
 51
0.0
 71
     0
 72
   100
 73
     1
 74
     3
 75
     0
 76
     0
 77
     0
 78
     0
281
     0
 65
     1
110
0.0
120
0.0
130
0.0
111
1.0
121
0.0
131
0.0
112
0.0
122
1.0
132
0.0
 79
     0
146
0.0
  0
VPORT
  5
16A
330
8
100
AcDbSymbolTableRecord
100
AcDbViewportTableRecord
  2
L4
 70
     0
 10
0.0
 20
0.0
 11
0.5
 21
0.5
 12
0.0
 22
0.0
 13
0.0
 23
0.0
 14
0.5
 24
0.5
 15
0.5
 25
0.5
 16
0.0
 26
-1.0
 36
0.0
 17
0.0
 27
0.0
 37
0.0
 40
1599.038483
 41
0.011105
 42
50.0
 43
822.955166
 44
-822.955166
 50
0.0
 51
0.0
 71
     0
 72
   100
 73
     1
 74
     3
 75
     0
 76
     0
 77
     0
 78
     0
281
     0
 65
     1
110
0.0
120
0.0
130
0.0
111
1.0
121
0.0
131
0.0
112
0.0
122
1.0
132
0.0
 79
     0
146
0.0
  0
VPORT
  5
16B
330
8
100
AcDbSymbolTableRecord
100
AcDbViewportTableRecord
  2
L4
 70
     0
 10
0.5
 20
0.0
 11
1.0
 21
0.5
 12
0.0
 22
0.0
 13
0.0
 23
0.0
 14
0.5
 24
0.5
 15
0.5
 25
0.5
 16
1.0
 26
0.0
 36
0.0
 17
0.0
 27
0.0
 37
0.0
 40
1599.038483
 41
0.011105
 42
50.0
 43
809.772658
 44
-809.772658
 50
0.0
 51
0.0
 71
     0
 72
   100
 73
     1
 74
     3
 75
     0
 76
     0
 77
     0
 78
     0
281
     0
 65
     1
110
0.0
120
0.0
130
0.0
111
1.0
121
0.0
131
0.0
112
0.0
122
1.0
132
0.0
 79
     0
146
0.0
  0
VPORT
  5
16C
330
8
100
AcDbSymbolTableRecord
100
AcDbViewportTableRecord
  2
L4
 70
     0
 10
0.5
 20
0.5
 11
1.0
 21
1.0
 12
0.0
 22
0.0
 13
0.0
 23
0.0
 14
0.5
 24
0.5
 15
0.5
 25
0.5
 16
0.5773502691896258
 26
-0.5773502691896258
 36
0.5773502691896258
 17
0.0
 27
0.0
 37
0.0
 40
1569.707825
 41
0.011312
 42
50.0
 43
817.50023
 44
-817.50023
 50
0.0
 51
0.0
 71
     0
 72
   100
 73
     1
 74
     3
 75
     0
 76
     0
 77
     0
 78
     0
281
     0
 65
     1
110
0.0
120
0.0
130
0.0
111
1.0
121
0.0
131
0.0
112
0.0
122
1.0
132
0.0
 79
     0
146
0.0
  0
VPORT
  5
16D
330
8
100
AcDbSymbolTableRecord
100
AcDbViewportTableRecord
  2
L6
 70
     0
 10
0.0
 20
0.5
 11
0.333333
 21
1.0
 12
0.0
 22
0.0
 13
0.0
 23
0.0
 14
0.5
 24
0.5
 15
0.5
 25
0.5
 16
0.7188730927569433
 26
-0.5850486126764433
 36
0.3754192287502549
 17
0.0
 27
0.0
 37
0.0
 40
1656.515283
 41
0.010719
 42
50.0
 43
857.679146
 44
-857.679146
 50
0.0
 51
0.0
 71
     0
 72
   100
 73
     1
 74
     3
 75
     0
 76
     0
 77
     0
 78
     0
281
     0
 65
     1
110
0.0
120
0.0
130
0.0
111
1.0
121
0.0
131
0.0
112
0.0
122
1.0
132
0.0
 79
     0
146
0.0
  0
VPORT
  5
16E
330
8
100
AcDbSymbolTableRecord
100
AcDbViewportTableRecord
  2
L6
 70
     0
 10
0.0
 20
0.0
 11
0.333333
 21
0.5
 12
0.0
 22
0.0
 13
0.0
 23
0.0
 14
0.5
 24
0.5
 15
0.5
 25
0.5
 16
-1.0
 26
0.0
 36
0.0
 17
0.0
 27
0.0
 37
0.0
 40
1599.038483
 41
0.011105
 42
50.0
 43
809.772658
 44
-809.772658
 50
0.0
 51
0.0
 71
     0
 72
   100
 73
     1
 74
     3
 75
     0
 76
     0
 77
     0
 78
     0
281
     0
 65
     1
110
0.0
120
0.0
130
0.0
111
1.0
121
0.0
131
0.0
112
0.0
122
1.0
132
0.0
 79
     0
146
0.0
  0
VPORT
  5
16F
330
8
100
AcDbSymbolTableRecord
100
AcDbViewportTableRecord
  2
L6
 70
     0
 10
0.333333
 20
0.5
 11
0.666667
 21
1.0
 12
550.77249
 22
502.9423
 13
0.0
 23
0.0
 14
0.5
 24
0.5
 15
0.5
 25
0.5
 16
0.0
 26
0.0
 36
1.0
 17
0.0
 27
0.0
 37
0.0
 40
256.910417
 41
0.069117
 42
50.0
 43
1078.725169
 44
-1078.725169
 50
0.0
 51
0.0
 71
     0
 72
   100
 73
     1
 74
     3
 75
     0
 76
     0
 77
     0
 78
     0
281
     0
 65
     1
110
0.0
120
0.0
130
0.0
111
1.0
121
0.0
131
0.0
112
0.0
122
1.0
132
0.0
 79
     0
146
0.0
  0
VPORT
  5
170
330
8
100
AcDbSymbolTableRecord
100
AcDbViewportTableRecord
  2
L6
 70
     0
 10
0.333333
 20
0.0
 11
0.666667
 21
0.5
 12
0.0
 22
0.0
 13
0.0
 23
0.0
 14
0.5
 24
0.5
 15
0.5
 25
0.5
 16
0.0
 26
-1.0
 36
0.0
 17
0.0
 27
0.0
 37
0.0
 40
1599.038483
 41
0.011105
 42
50.0
 43
822.955166
 44
-822.955166
 50
0.0
 51
0.0
 71
     0
 72
   100
 73
     1
 74
     3
 75
     0
 76
     0
 77
     0
 78
     0
281
     0
 65
     1
110
0.0
120
0.0
130
0.0
111
1.0
121
0.0
131
0.0
112
0.0
122
1.0
132
0.0
 79
     0
146
0.0
  0
VPORT
  5
171
330
8
100
AcDbSymbolTableRecord
100
AcDbViewportTableRecord
  2
L6
 70
     0
 10
0.666667
 20
0.5
 11
1.0
 21
1.0
 12
0.0
 22
0.0
 13
0.0
 23
0.0
 14
0.5
 24
0.5
 15
0.5
 25
0.5
 16
0.5773502691896258
 26
-0.5773502691896258
 36
0.5773502691896258
 17
0.0
 27
0.0
 37
0.0
 40
1569.707825
 41
0.011312
 42
50.0
 43
817.50023
 44
-817.50023
 50
0.0
 51
0.0
 71
     0
 72
   100
 73
     1
 74
     3
 75
     0
 76
     0
 77
     0
 78
     0
281
     0
 65
     1
110
0.0
120
0.0
130
0.0
111
1.0
121
0.0
131
0.0
112
0.0
122
1.0
132
0.0
 79
     0
146
0.0
  0
VPORT
  5
172
330
8
100
AcDbSymbolTableRecord
100
AcDbViewportTableRecord
  2
L6
 70
     0
 10
0.666667
 20
0.0
 11
1.0
 21
0.5
 12
0.0
 22
0.0
 13
0.0
 23
0.0
 14
0.5
 24
0.5
 15
0.5
 25
0.5
 16
1.0
 26
0.0
 36
0.0
 17
0.0
 27
0.0
 37
0.0
 40
1599.038483
 41
0.011105
 42
50.0
 43
809.772658
 44
-809.772658
 50
0.0
 51
0.0
 71
     0
 72
   100
 73
     1
 74
     3
 75
     0
 76
     0
 77
     0
 78
     0
281
     0
 65
     1
110
0.0
120
0.0
130
0.0
111
1.0
121
0.0
131
0.0
112
0.0
122
1.0
132
0.0
 79
     0
146
0.0
  0
ENDTAB
  0
TABLE
  2
LTYPE
  5
5
330
0
100
AcDbSymbolTable
 70
     6
  0
LTYPE
  5
14
330
5
100
AcDbSymbolTableRecord
100
AcDbLinetypeTableRecord
  2
ByBlock
 70
     0
  3

 72
    65
 73
     0
 40
0.0
  0
LTYPE
  5
15
330
5
100
AcDbSymbolTableRecord
100
AcDbLinetypeTableRecord
  2
ByLayer
 70
     0
  3

 72
    65
 73
     0
 40
0.0
  0
LTYPE
  5
16
330
5
100
AcDbSymbolTableRecord
100
AcDbLinetypeTableRecord
  2
Continuous
 70
     0
  3
Solid line
 72
    65
 73
     0
 40
0.0
  0
LTYPE
  5
6E
330
5
100
AcDbSymbolTableRecord
100
AcDbLinetypeTableRecord
  2
CENTER
 70
     0
  3
____ _ ____ _ ____ _ ____
 72
    65
 73
     4
 40
47.4
 49
22.0
 74
     4
 75
     0
340
0
 46
0.0
 50
0.0
 44
0.0
 45
0.0
 49
-8.5
 74
     4
 75
     0
340
0
 46
0.0
 50
0.0
 44
0.0
 45
0.0
 49
8.5
 74
     4
 75
     0
340
0
 46
0.0
 50
0.0
 44
0.0
 45
0.0
 49
-8.5
 74
     4
 75
     0
340
0
 46
0.0
 50
0.0
 44
0.0
 45
0.0
  0
LTYPE
  5
6F
330
5
100
AcDbSymbolTableRecord
100
AcDbLinetypeTableRecord
  2
DASHDOT
 70
     0
  3
_._._._._._._._._._._._._._._._.
 72
    65
 73
     4
 40
70.0
 49
31.0
 74
     4
 75
     0
340
0
 46
0.0
 50
0.0
 44
0.0
 45
0.0
 49
-13.0
 74
     4
 75
     0
340
0
 46
0.0
 50
0.0
 44
0.0
 45
0.0
 49
13.0
 74
     4
 75
     0
340
0
 46
0.0
 50
0.0
 44
0.0
 45
0.0
 49
-13.0
 74
     4
 75
     0
340
0
 46
0.0
 50
0.0
 44
0.0
 45
0.0
  0
LTYPE
  5
70
330
5
100
AcDbSymbolTableRecord
100
AcDbLinetypeTableRecord
  2
DASHED
 70
     0
  3
__ __ __ __ __ __ __ __ __
 72
    65
 73
     2
 40
25.72
 49
12.86
 74
     4
 75
     0
340
0
 46
0.0
 50
0.0
 44
0.0
 45
0.0
 49
-12.86
 74
     4
 75
     0
340
0
 46
0.0
 50
0.0
 44
0.0
 45
0.0
  0
LTYPE
  5
71
330
5
100
AcDbSymbolTableRecord
100
AcDbLinetypeTableRecord
  2
DOT
 70
     0
  3
.........................
 72
    65
 73
     2
 40
10.0
 49
0.0
 74
     4
 75
     0
340
0
 46
0.0
 50
0.0
 44
0.0
 45
0.0
 49
-10.0
 74
     4
 75
     0
340
0
 46
0.0
 50
0.0
 44
0.0
 45
0.0
  0
LTYPE
  5
72
330
5
100
AcDbSymbolTableRecord
100
AcDbLinetypeTableRecord
  2
PHANTOM
 70
     0
  3
____ _ _ ____ _ _ _____ _ _ ____
 72
    65
 73
     6
 40
50.5
 49
18.0
 74
     4
 75
     0
340
0
 46
0.0
 50
0.0
 44
0.0
 45
0.0
 49
-6.5
 74
     4
 75
     0
340
0
 46
0.0
 50
0.0
 44
0.0
 45
0.0
 49
6.5
 74
     4
 75
     0
340
0
 46
0.0
 50
0.0
 44
0.0
 45
0.0
 49
-6.5
 74
     4
 75
     0
340
0
 46
0.0
 50
0.0
 44
0.0
 45
0.0
 49
6.5
 74
     4
 75
     0
340
0
 46
0.0
 50
0.0
 44
0.0
 45
0.0
 49
-6.5
 74
     4
 75
     0
340
0
 46
0.0
 50
0.0
 44
0.0
 45
0.0
  0
ENDTAB
  0
TABLE
  2
LAYER
  5
2
330
0
100
AcDbSymbolTable
 70
     2
  0
LAYER
  5
10
330
2
100
AcDbSymbolTableRecord
100
AcDbLayerTableRecord
  2
0
 70
     0
 62
     7
  6
Continuous
370
    -3
390
F
  0
LAYER
  5
74
330
2
100
AcDbSymbolTableRecord
100
AcDbLayerTableRecord
  2
1
 70
     0
 62
     7
420
 16777215
  6
Continuous
370
    -3
390
F
  0
ENDTAB
  0
TABLE
  2
STYLE
  5
3
330
0
100
AcDbSymbolTable
 70
     1
  0
STYLE
  5
11
330
3
100
AcDbSymbolTableRecord
100
AcDbTextStyleTableRecord
  2
Standard
 70
     0
 40
0.0
 41
1.0
 50
0.0
 71
     0
 42
0.2
  3
txt
  4

  0
ENDTAB
  0
TABLE
  2
VIEW
  5
6
330
0
100
AcDbSymbolTable
 70
     0
  0
ENDTAB
  0
TABLE
  2
UCS
  5
7
330
0
100
AcDbSymbolTable
 70
     0
  0
ENDTAB
  0
TABLE
  2
APPID
  5
9
330
0
100
AcDbSymbolTable
 70
     2
  0
APPID
  5
12
330
9
100
AcDbSymbolTableRecord
100
AcDbRegAppTableRecord
  2
ACAD
 70
     0
  0
APPID
  5
1B2
330
9
100
AcDbSymbolTableRecord
100
AcDbRegAppTableRecord
  2
ACAD_MLEADERVER
 70
     0
  0
ENDTAB
  0
TABLE
  2
DIMSTYLE
  5
A
330
0
100
AcDbSymbolTable
 70
     1
100
AcDbDimStyleTable
  0
DIMSTYLE
105
27
330
A
100
AcDbSymbolTableRecord
100
AcDbDimStyleTableRecord
  2
Standard
 70
     0
178
     0
340
11
  0
ENDTAB
  0
TABLE
  2
BLOCK_RECORD
  5
1
330
0
100
AcDbSymbolTable
 70
     1
  0
BLOCK_RECORD
  5
1F
330
1
100
AcDbSymbolTableRecord
100
AcDbBlockTableRecord
  2
*Model_Space
340
22
  0
BLOCK_RECORD
  5
1B
330
1
100
AcDbSymbolTableRecord
100
AcDbBlockTableRecord
  2
*Paper_Space
340
1E
  0
BLOCK_RECORD
  5
23
330
1
100
AcDbSymbolTableRecord
100
AcDbBlockTableRecord
  2
*Paper_Space0
340
26
  0
ENDTAB
  0
ENDSEC
  0
SECTION
  2
BLOCKS
  0
BLOCK
  5
20
330
1F
100
AcDbEntity
  8
0
100
AcDbBlockBegin
  2
*Model_Space
 70
     0
 10
0.0
 20
0.0
 30
0.0
  3
*Model_Space
  1

  0
ENDBLK
  5
21
330
1F
100
AcDbEntity
  8
0
100
AcDbBlockEnd
  0
BLOCK
  5
1C
330
1B
100
AcDbEntity
 67
     1
  8
0
100
AcDbBlockBegin
  2
*Paper_Space
 70
     0
 10
0.0
 20
0.0
 30
0.0
  3
*Paper_Space
  1

  0
ENDBLK
  5
1D
330
1B
100
AcDbEntity
 67
     1
  8
0
100
AcDbBlockEnd
  0
BLOCK
  5
24
330
23
100
AcDbEntity
  8
0
100
AcDbBlockBegin
  2
*Paper_Space0
 70
     0
 10
0.0
 20
0.0
 30
0.0
  3
*Paper_Space0
  1

  0
ENDBLK
  5
25
330
23
100
AcDbEntity
  8
0
100
AcDbBlockEnd
  0
ENDSEC
  0
SECTION
  2
ENTITIES
  0
LINE
  5
73
330
1F
100
AcDbEntity
  8
1
  6
Continuous
 62
    30
370
    18
100
AcDbLine
 10
355.771968
 20
511.29322
 30
0.0
 11
360.727905
 21
511.29322
 31
0.0
  0
LINE
  5
75
330
1F
100
AcDbEntity
  8
1
  6
Continuous
 62
    30
370
    18
100
AcDbLine
 10
468.726799
 20
511.29322
 30
0.0
 11
473.682736
 21
511.29322
 31
0.0
  0
LINE
  5
76
330
1F
100
AcDbEntity
  8
1
  6
Continuous
 62
    30
370
    18
100
AcDbLine
 10
332.727352
 20
505.44322
 30
0.0
 11
347.001478
 21
505.44322
 31
0.0
  0
LINE
  5
77
330
1F
100
AcDbEntity
  8
1
  6
Continuous
 62
    30
370
    18
100
AcDbLine
 10
482.453226
 20
505.44322
 30
0.0
 11
496.727352
 21
505.44322
 31
0.0
  0
LINE
  5
78
330
1F
100
AcDbEntity
  8
1
  6
Continuous
 62
   252
370
    18
100
AcDbLine
 10
360.727352
 20
569.19322
 30
0.0
 11
356.661007
 21
546.131831
 31
0.0
  0
LINE
  5
79
330
1F
100
AcDbEntity
  8
1
  6
Continuous
 62
   252
370
    18
100
AcDbLine
 10
472.793697
 20
546.131831
 30
0.0
 11
468.727352
 21
569.19322
 31
0.0
  0
LINE
  5
7A
330
1F
100
AcDbEntity
  8
1
  6
Continuous
 62
   252
370
    18
100
AcDbLine
 10
432.727352
 20
440.59322
 30
0.0
 11
432.727352
 21
499.59322
 31
0.0
  0
LINE
  5
7B
330
1F
100
AcDbEntity
  8
1
  6
Continuous
 62
   252
370
    18
100
AcDbLine
 10
396.727352
 20
499.59322
 30
0.0
 11
396.727352
 21
440.59322
 31
0.0
  0
LINE
  5
7C
330
1F
100
AcDbEntity
  8
1
  6
Continuous
 62
   252
370
    18
100
AcDbLine
 10
361.727352
 20
586.59322
 30
0.0
 11
361.727352
 21
569.19322
 31
0.0
  0
LINE
  5
7D
330
1F
100
AcDbEntity
  8
1
  6
Continuous
 62
   252
370
    18
100
AcDbLine
 10
467.727352
 20
569.19322
 30
0.0
 11
467.727352
 21
586.59322
 31
0.0
  0
LINE
  5
7E
330
1F
100
AcDbEntity
  8
1
  6
Continuous
 62
   252
370
    18
100
AcDbLine
 10
360.727352
 20
511.29322
 30
0.0
 11
360.727352
 21
499.59322
 31
0.0
  0
LINE
  5
7F
330
1F
100
AcDbEntity
  8
1
  6
Continuous
 62
   252
370
    18
100
AcDbLine
 10
468.727352
 20
499.59322
 30
0.0
 11
468.727352
 21
511.29322
 31
0.0
  0
LINE
  5
80
330
1F
100
AcDbEntity
  8
1
  6
Continuous
 62
    30
370
    18
100
AcDbLine
 10
323.227352
 20
514.94322
 30
0.0
 11
323.227352
 21
524.44322
 31
0.0
  0
LINE
  5
81
330
1F
100
AcDbEntity
  8
1
  6
Continuous
 62
    30
370
    18
100
AcDbLine
 10
323.227352
 20
524.44322
 30
0.0
 11
323.227352
 21
667.09322
 31
0.0
  0
LINE
  5
82
330
1F
100
AcDbEntity
  8
1
  6
Continuous
 62
    30
370
    13
100
AcDbLine
 10
323.227352
 20
524.44322
 30
0.0
 11
332.727352
 21
524.44322
 31
0.0
  0
LINE
  5
83
330
1F
100
AcDbEntity
  8
1
  6
Continuous
 62
    30
370
    18
100
AcDbLine
 10
355.771969
 20
511.293259
 30
0.0
 11
356.085902
 21
523.595515
 31
0.0
  0
LINE
  5
84
330
1F
100
AcDbEntity
  8
1
  6
Continuous
 62
    30
370
    13
100
AcDbLine
 10
473.048061
 20
536.164543
 30
0.0
 11
482.544969
 21
536.406889
 31
0.0
  0
LINE
  5
85
330
1F
100
AcDbEntity
  8
1
  6
Continuous
 62
    30
370
    18
100
AcDbLine
 10
473.682736
 20
511.29322
 30
0.0
 11
473.368801
 21
523.595515
 31
0.0
  0
LINE
  5
86
330
1F
100
AcDbEntity
  8
1
  6
Continuous
 62
    30
370
    18
100
AcDbLine
 10
473.368801
 20
523.595515
 30
0.0
 11
473.048061
 21
536.164543
 31
0.0
  0
LINE
  5
87
330
1F
100
AcDbEntity
  8
1
  6
Continuous
 62
    30
370
    13
100
AcDbLine
 10
481.628432
 20
524.44322
 30
0.0
 11
473.368801
 21
523.595515
 31
0.0
  0
LINE
  5
88
330
1F
100
AcDbEntity
  8
1
  6
Continuous
 62
    30
370
    13
100
AcDbLine
 10
356.406643
 20
536.164543
 30
0.0
 11
346.909734
 21
536.406889
 31
0.0
  0
LINE
  5
89
330
1F
100
AcDbEntity
  8
1
  6
Continuous
 62
    30
370
    13
100
AcDbLine
 10
496.727352
 20
524.44322
 30
0.0
 11
496.727352
 21
505.44322
 31
0.0
  0
LINE
  5
8A
330
1F
100
AcDbEntity
  8
1
  6
Continuous
 62
    30
370
    13
100
AcDbLine
 10
506.227352
 20
524.44322
 30
0.0
 11
496.727352
 21
524.44322
 31
0.0
  0
LINE
  5
8B
330
1F
100
AcDbEntity
  8
1
  6
Continuous
 62
    30
370
    13
100
AcDbLine
 10
506.227352
 20
667.09322
 30
0.0
 11
496.727352
 21
667.09322
 31
0.0
  0
LINE
  5
8C
330
1F
100
AcDbEntity
  8
1
  6
Continuous
 62
    30
370
    18
100
AcDbLine
 10
506.227352
 20
524.44322
 30
0.0
 11
506.227352
 21
514.94322
 31
0.0
  0
LINE
  5
8D
330
1F
100
AcDbEntity
  8
1
  6
Continuous
 62
    30
370
    13
100
AcDbLine
 10
346.909734
 20
536.406889
 30
0.0
 11
350.248342
 21
667.238617
 31
0.0
  0
LINE
  5
8E
330
1F
100
AcDbEntity
  8
1
  6
Continuous
 62
    30
370
    18
100
AcDbLine
 10
356.406643
 20
536.164543
 30
0.0
 11
356.085902
 21
523.595515
 31
0.0
  0
LINE
  5
8F
330
1F
100
AcDbEntity
  8
1
  6
Continuous
 62
    30
370
    13
100
AcDbLine
 10
356.085902
 20
523.595515
 30
0.0
 11
347.826272
 21
524.44322
 31
0.0
  0
LINE
  5
90
330
1F
100
AcDbEntity
  8
1
  6
Continuous
 62
    30
370
    13
100
AcDbLine
 10
323.227352
 20
667.09322
 30
0.0
 11
332.727352
 21
667.09322
 31
0.0
  0
LINE
  5
91
330
1F
100
AcDbEntity
  8
1
  6
Continuous
 62
    30
370
    13
100
AcDbLine
 10
481.628432
 20
524.44322
 30
0.0
 11
496.727352
 21
524.44322
 31
0.0
  0
LINE
  5
92
330
1F
100
AcDbEntity
  8
1
  6
Continuous
 62
    30
370
    13
100
AcDbLine
 10
496.727352
 20
524.44322
 30
0.0
 11
496.727352
 21
667.09322
 31
0.0
  0
LINE
  5
93
330
1F
100
AcDbEntity
  8
1
  6
Continuous
 62
    30
370
    18
100
AcDbLine
 10
430.040523
 20
732.259887
 30
0.0
 11
431.844388
 21
732.259887
 31
0.0
  0
LINE
  5
94
330
1F
100
AcDbEntity
  8
1
  6
Continuous
 62
    30
370
    13
100
AcDbLine
 10
332.727352
 20
667.09322
 30
0.0
 11
332.727352
 21
524.44322
 31
0.0
  0
LINE
  5
95
330
1F
100
AcDbEntity
  8
1
  6
Continuous
 62
    30
370
    18
100
AcDbLine
 10
428.093493
 20
738.23616
 30
0.0
 11
426.490057
 21
738.000486
 31
0.0
  0
LINE
  5
96
330
1F
100
AcDbEntity
  8
1
  6
Continuous
 62
    30
370
    18
100
AcDbLine
 10
416.686908
 20
732.259887
 30
0.0
 11
418.469299
 21
732.259887
 31
0.0
  0
LINE
  5
97
330
1F
100
AcDbEntity
  8
1
  6
Continuous
 62
    30
370
    18
100
AcDbLine
 10
413.870158
 20
742.210962
 30
0.0
 11
412.066292
 21
735.675403
 31
0.0
  0
LINE
  5
98
330
1F
100
AcDbEntity
  8
1
  6
Continuous
 62
    30
370
    18
100
AcDbLine
 10
418.469299
 20
732.259887
 30
0.0
 11
421.647538
 21
742.210962
 31
0.0
  0
LINE
  5
99
330
1F
100
AcDbEntity
  8
1
  6
Continuous
 62
    30
370
    18
100
AcDbLine
 10
410.84582
 20
732.259887
 30
0.0
 11
412.638948
 21
732.259887
 31
0.0
  0
LINE
  5
9A
330
1F
100
AcDbEntity
  8
1
  6
Continuous
 62
    30
370
    18
100
AcDbLine
 10
411.722699
 20
734.331709
 30
0.0
 11
409.517974
 21
742.210962
 31
0.0
  0
LINE
  5
9B
330
1F
100
AcDbEntity
  8
1
  6
Continuous
 62
    30
370
    18
100
AcDbLine
 10
506.227352
 20
667.09322
 30
0.0
 11
506.227352
 21
524.44322
 31
0.0
  0
LINE
  5
9C
330
1F
100
AcDbEntity
  8
1
  6
Continuous
 62
    30
370
    18
100
AcDbLine
 10
409.517974
 20
742.210962
 30
0.0
 11
407.735584
 21
742.210962
 31
0.0
  0
LINE
  5
9D
330
1F
100
AcDbEntity
  8
1
  6
Continuous
 62
    30
370
    18
100
AcDbLine
 10
415.083472
 20
738.23616
 30
0.0
 11
416.686908
 21
732.259887
 31
0.0
  0
LINE
  5
9E
330
1F
100
AcDbEntity
  8
1
  6
Continuous
 62
    30
370
    18
100
AcDbLine
 10
407.735584
 20
742.210962
 30
0.0
 11
410.84582
 21
732.259887
 31
0.0
  0
LINE
  5
9F
330
1F
100
AcDbEntity
  8
1
  6
Continuous
 62
    30
370
    18
100
AcDbLine
 10
405.112105
 20
738.197467
 30
0.0
 11
399.385548
 21
738.197467
 31
0.0
  0
LINE
  5
A0
330
1F
100
AcDbEntity
  8
1
  6
Continuous
 62
    30
370
    18
100
AcDbLine
 10
412.638948
 20
732.259887
 30
0.0
 11
414.65398
 21
739.921054
 31
0.0
  0
LINE
  5
A1
330
1F
100
AcDbEntity
  8
1
  6
Continuous
 62
    30
370
    18
100
AcDbLine
 10
414.65398
 20
739.921054
 30
0.0
 11
414.69335
 21
739.921054
 31
0.0
  0
LINE
  5
A2
330
1F
100
AcDbEntity
  8
1
  6
Continuous
 62
    30
370
    18
100
AcDbLine
 10
422.796428
 20
739.368802
 30
0.0
 11
424.475025
 21
739.154233
 31
0.0
  0
LINE
  5
A3
330
1F
100
AcDbEntity
  8
1
  6
Continuous
 62
   252
370
    18
100
AcDbLine
 10
398.850219
 20
605.59322
 30
0.0
 11
398.850219
 21
586.59322
 31
0.0
  0
LINE
  5
A4
330
1F
100
AcDbEntity
  8
1
  6
Continuous
 62
   252
370
    18
100
AcDbLine
 10
361.727352
 20
586.59322
 30
0.0
 11
467.727352
 21
586.59322
 31
0.0
  0
LINE
  5
A5
330
1F
100
AcDbEntity
  8
1
  6
Continuous
 62
   252
370
    18
100
AcDbLine
 10
382.973087
 20
605.59322
 30
0.0
 11
398.850219
 21
605.59322
 31
0.0
  0
LINE
  5
A6
330
1F
100
AcDbEntity
  8
1
  6
Continuous
 62
   252
370
    18
100
AcDbLine
 10
446.481616
 20
605.59322
 30
0.0
 11
446.481616
 21
586.59322
 31
0.0
  0
LINE
  5
A7
330
1F
100
AcDbEntity
  8
1
  6
Continuous
 62
   252
370
    18
100
AcDbLine
 10
360.727352
 20
569.19322
 30
0.0
 11
468.727352
 21
569.19322
 31
0.0
  0
LINE
  5
A8
330
1F
100
AcDbEntity
  8
1
  6
Continuous
 62
   252
370
    18
100
AcDbLine
 10
398.850219
 20
605.59322
 30
0.0
 11
430.604484
 21
605.59322
 31
0.0
  0
LINE
  5
A9
330
1F
100
AcDbEntity
  8
1
  6
Continuous
 62
   252
370
    18
100
AcDbLine
 10
432.727352
 20
440.59322
 30
0.0
 11
396.727352
 21
440.59322
 31
0.0
  0
LINE
  5
AA
330
1F
100
AcDbEntity
  8
1
  6
Continuous
 62
   252
370
    18
100
AcDbLine
 10
468.727352
 20
499.59322
 30
0.0
 11
360.727352
 21
499.59322
 31
0.0
  0
LINE
  5
AB
330
1F
100
AcDbEntity
  8
1
  6
Continuous
 62
   252
370
    18
100
AcDbLine
 10
360.727352
 20
511.29322
 30
0.0
 11
468.727352
 21
511.29322
 31
0.0
  0
LINE
  5
AC
330
1F
100
AcDbEntity
  8
1
  6
Continuous
 62
   252
370
    18
100
AcDbLine
 10
430.604484
 20
605.59322
 30
0.0
 11
430.604484
 21
586.59322
 31
0.0
  0
LINE
  5
AD
330
1F
100
AcDbEntity
  8
1
  6
Continuous
 62
   252
370
    18
100
AcDbLine
 10
355.622686
 20
540.24322
 30
0.0
 11
473.832018
 21
540.24322
 31
0.0
  0
LINE
  5
AE
330
1F
100
AcDbEntity
  8
1
  6
Continuous
 62
   252
370
    18
100
AcDbLine
 10
430.604484
 20
605.59322
 30
0.0
 11
446.481616
 21
605.59322
 31
0.0
  0
LINE
  5
AF
330
1F
100
AcDbEntity
  8
1
  6
Continuous
 62
   252
370
    18
100
AcDbLine
 10
382.973087
 20
605.59322
 30
0.0
 11
382.973087
 21
586.59322
 31
0.0
  0
LINE
  5
B0
330
1F
100
AcDbEntity
  8
1
  6
Continuous
 62
    30
370
    18
100
AcDbLine
 10
388.945319
 20
733.301074
 30
0.0
 11
388.991847
 21
733.301074
 31
0.0
  0
LINE
  5
B1
330
1F
100
AcDbEntity
  8
1
  6
Continuous
 62
    30
370
    18
100
AcDbLine
 10
388.945319
 20
728.432821
 30
0.0
 11
388.945319
 21
733.301074
 31
0.0
  0
LINE
  5
B2
330
1F
100
AcDbEntity
  8
1
  6
Continuous
 62
    30
370
    18
100
AcDbLine
 10
387.227352
 20
728.432821
 30
0.0
 11
388.945319
 21
728.432821
 31
0.0
  0
LINE
  5
B3
330
1F
100
AcDbEntity
  8
1
  6
Continuous
 62
    30
370
    18
100
AcDbLine
 10
387.227352
 20
742.210962
 30
0.0
 11
387.227352
 21
728.432821
 31
0.0
  0
LINE
  5
B4
330
1F
100
AcDbEntity
  8
1
  6
Continuous
 62
    30
370
    18
100
AcDbLine
 10
388.791418
 20
742.210962
 30
0.0
 11
387.227352
 21
742.210962
 31
0.0
  0
LINE
  5
B5
330
1F
100
AcDbEntity
  8
1
  6
Continuous
 62
    30
370
    18
100
AcDbLine
 10
388.791418
 20
740.927065
 30
0.0
 11
388.791418
 21
742.210962
 31
0.0
  0
LINE
  5
B6
330
1F
100
AcDbEntity
  8
1
  6
Continuous
 62
    30
370
    18
100
AcDbLine
 10
388.830788
 20
740.927065
 30
0.0
 11
388.791418
 21
740.927065
 31
0.0
  0
LINE
  5
B7
330
1F
100
AcDbEntity
  8
1
  6
Continuous
 62
    30
370
    18
100
AcDbLine
 10
435.305376
 20
731.180007
 30
0.0
 11
433.637516
 21
731.433269
 31
0.0
  0
LINE
  5
B8
330
1F
100
AcDbEntity
  8
1
  6
Continuous
 62
    30
370
    18
100
AcDbLine
 10
440.641811
 20
741.018521
 30
0.0
 11
440.602441
 21
741.018521
 31
0.0
  0
LINE
  5
B9
330
1F
100
AcDbEntity
  8
1
  6
Continuous
 62
    30
370
    18
100
AcDbLine
 10
440.641811
 20
742.210962
 30
0.0
 11
440.641811
 21
741.018521
 31
0.0
  0
LINE
  5
BA
330
1F
100
AcDbEntity
  8
1
  6
Continuous
 62
    30
370
    18
100
AcDbLine
 10
442.227352
 20
742.210962
 30
0.0
 11
440.641811
 21
742.210962
 31
0.0
  0
LINE
  5
BB
330
1F
100
AcDbEntity
  8
1
  6
Continuous
 62
    30
370
    13
100
AcDbLine
 10
332.727352
 20
524.44322
 30
0.0
 11
347.826272
 21
524.44322
 31
0.0
  0
LINE
  5
BC
330
1F
100
AcDbEntity
  8
1
  6
Continuous
 62
    30
370
    13
100
AcDbLine
 10
469.709453
 20
666.996272
 30
0.0
 11
479.206361
 21
667.238617
 31
0.0
  0
LINE
  5
BD
330
1F
100
AcDbEntity
  8
1
  6
Continuous
 62
    30
370
    18
100
AcDbLine
 10
473.048061
 20
536.164543
 30
0.0
 11
469.709453
 21
666.996272
 31
0.0
  0
LINE
  5
BE
330
1F
100
AcDbEntity
  8
1
  6
Continuous
 62
    30
370
    13
100
AcDbLine
 10
332.727352
 20
505.44322
 30
0.0
 11
332.727352
 21
524.44322
 31
0.0
  0
LINE
  5
BF
330
1F
100
AcDbEntity
  8
1
  6
Continuous
 62
    30
370
    13
100
AcDbLine
 10
479.206361
 20
667.238617
 30
0.0
 11
482.544969
 21
536.406889
 31
0.0
  0
LINE
  5
C0
330
1F
100
AcDbEntity
  8
1
  6
Continuous
 62
    30
370
    18
100
AcDbLine
 10
359.745251
 20
666.996272
 30
0.0
 11
356.406643
 21
536.164543
 31
0.0
  0
LINE
  5
C1
330
1F
100
AcDbEntity
  8
1
  6
Continuous
 62
    30
370
    13
100
AcDbLine
 10
350.248342
 20
667.238617
 30
0.0
 11
359.745251
 21
666.996272
 31
0.0
  0
LINE
  5
C2
330
1F
100
AcDbEntity
  8
1
  6
Continuous
 62
    30
370
    18
100
AcDbLine
 10
406.819335
 20
735.2533
 30
0.0
 11
405.054839
 21
735.467869
 31
0.0
  0
LINE
  5
C3
330
1F
100
AcDbEntity
  8
1
  6
Continuous
 62
    30
370
    18
100
AcDbLine
 10
399.288912
 20
736.808045
 30
0.0
 11
406.8766
 21
736.808045
 31
0.0
  0
LINE
  5
C4
330
1F
100
AcDbEntity
  8
1
  6
Continuous
 62
    30
370
    18
100
AcDbLine
 10
421.647538
 20
742.210962
 30
0.0
 11
419.968941
 21
742.210962
 31
0.0
  0
LINE
  5
C5
330
1F
100
AcDbEntity
  8
1
  6
Continuous
 62
    30
370
    18
100
AcDbLine
 10
419.968941
 20
742.210962
 30
0.0
 11
417.67116
 21
734.549795
 31
0.0
  0
LINE
  5
C6
330
1F
100
AcDbEntity
  8
1
  6
Continuous
 62
    30
370
    18
100
AcDbLine
 10
417.67116
 20
734.549795
 30
0.0
 11
417.63179
 21
734.549795
 31
0.0
  0
LINE
  5
C7
330
1F
100
AcDbEntity
  8
1
  6
Continuous
 62
    30
370
    18
100
AcDbLine
 10
417.001869
 20
736.997991
 30
0.0
 11
415.638232
 21
742.210962
 31
0.0
  0
LINE
  5
C8
330
1F
100
AcDbEntity
  8
1
  6
Continuous
 62
    30
370
    18
100
AcDbLine
 10
415.638232
 20
742.210962
 30
0.0
 11
413.870158
 21
742.210962
 31
0.0
  0
LINE
  5
C9
330
1F
100
AcDbEntity
  8
1
  6
Continuous
 62
    30
370
    18
100
AcDbLine
 10
412.066292
 20
735.675403
 30
0.0
 11
411.722699
 21
734.331709
 31
0.0
  0
LINE
  5
CA
330
1F
100
AcDbEntity
  8
1
  6
Continuous
 62
    30
370
    18
100
AcDbLine
 10
728.712962
 20
758.59322
 30
0.0
 11
709.712962
 21
758.59322
 31
0.0
  0
LINE
  5
CB
330
1F
100
AcDbEntity
  8
1
  6
Continuous
 62
   252
370
    18
100
AcDbLine
 10
691.712962
 20
605.59322
 30
0.0
 11
700.21304
 21
605.59322
 31
0.0
  0
LINE
  5
CC
330
1F
100
AcDbEntity
  8
1
  6
Continuous
 62
   252
370
    18
100
AcDbLine
 10
665.212962
 20
499.59322
 30
0.0
 11
773.212962
 21
499.59322
 31
0.0
  0
LINE
  5
CD
330
1F
100
AcDbEntity
  8
1
  6
Continuous
 62
   252
370
    18
100
AcDbLine
 10
691.712962
 20
605.59322
 30
0.0
 11
691.712962
 21
586.59322
 31
0.0
  0
LINE
  5
CE
330
1F
100
AcDbEntity
  8
1
  6
Continuous
 62
   252
370
    18
100
AcDbLine
 10
666.212962
 20
586.59322
 30
0.0
 11
700.211364
 21
586.59322
 31
0.0
  0
LINE
  5
CF
330
1F
100
AcDbEntity
  8
1
  6
Continuous
 62
   252
370
    18
100
AcDbLine
 10
738.214559
 20
586.59322
 30
0.0
 11
772.212962
 21
586.59322
 31
0.0
  0
LINE
  5
D0
330
1F
100
AcDbEntity
  8
1
  6
Continuous
 62
   252
370
    18
100
AcDbLine
 10
665.212962
 20
569.19322
 30
0.0
 11
700.209653
 21
569.19322
 31
0.0
  0
LINE
  5
D1
330
1F
100
AcDbEntity
  8
1
  6
Continuous
 62
   252
370
    18
100
AcDbLine
 10
738.21627
 20
569.19322
 30
0.0
 11
773.212962
 21
569.19322
 31
0.0
  0
LINE
  5
D2
330
1F
100
AcDbEntity
  8
1
  6
Continuous
 62
   252
370
    18
100
AcDbLine
 10
660.108295
 20
540.24322
 30
0.0
 11
700.210726
 21
540.24322
 31
0.0
  0
LINE
  5
D3
330
1F
100
AcDbEntity
  8
1
  6
Continuous
 62
   252
370
    18
100
AcDbLine
 10
738.215197
 20
540.24322
 30
0.0
 11
778.317628
 21
540.24322
 31
0.0
  0
LINE
  5
D4
330
1F
100
AcDbEntity
  8
1
  6
Continuous
 62
   252
370
    18
100
AcDbLine
 10
665.212962
 20
511.29322
 30
0.0
 11
705.51687
 21
511.29322
 31
0.0
  0
LINE
  5
D5
330
1F
100
AcDbEntity
  8
1
  6
Continuous
 62
   252
370
    18
100
AcDbLine
 10
732.919309
 20
511.29322
 30
0.0
 11
773.212962
 21
511.29322
 31
0.0
  0
LINE
  5
D6
330
1F
100
AcDbEntity
  8
1
  6
Continuous
 62
   252
370
    18
100
AcDbLine
 10
701.212962
 20
440.59322
 30
0.0
 11
737.212962
 21
440.59322
 31
0.0
  0
LINE
  5
D7
330
1F
100
AcDbEntity
  8
1
  6
Continuous
 62
   252
370
    18
100
AcDbLine
 10
738.212883
 20
605.59322
 30
0.0
 11
746.712962
 21
605.59322
 31
0.0
  0
LINE
  5
D8
330
1F
100
AcDbEntity
  8
1
  6
Continuous
 62
   252
370
    18
100
AcDbLine
 10
746.712962
 20
605.59322
 30
0.0
 11
746.712962
 21
586.59322
 31
0.0
  0
LINE
  5
D9
330
1F
100
AcDbEntity
  8
1
  6
Continuous
 62
   252
370
    18
100
AcDbLine
 10
665.212962
 20
511.29322
 30
0.0
 11
665.212962
 21
499.59322
 31
0.0
  0
LINE
  5
DA
330
1F
100
AcDbEntity
  8
1
  6
Continuous
 62
   252
370
    18
100
AcDbLine
 10
772.212962
 20
569.19322
 30
0.0
 11
772.212962
 21
586.59322
 31
0.0
  0
LINE
  5
DB
330
1F
100
AcDbEntity
  8
1
  6
Continuous
 62
   252
370
    18
100
AcDbLine
 10
737.212962
 20
440.59322
 30
0.0
 11
737.212962
 21
499.59322
 31
0.0
  0
LINE
  5
DC
330
1F
100
AcDbEntity
  8
1
  6
Continuous
 62
   252
370
    18
100
AcDbLine
 10
701.212962
 20
499.59322
 30
0.0
 11
701.212962
 21
440.59322
 31
0.0
  0
LINE
  5
DD
330
1F
100
AcDbEntity
  8
1
  6
Continuous
 62
   252
370
    18
100
AcDbLine
 10
666.212962
 20
586.59322
 30
0.0
 11
666.212962
 21
569.19322
 31
0.0
  0
LINE
  5
DE
330
1F
100
AcDbEntity
  8
1
  6
Continuous
 62
   252
370
    18
100
AcDbLine
 10
660.108295
 20
540.24322
 30
0.0
 11
665.212962
 21
511.29322
 31
0.0
  0
LINE
  5
DF
330
1F
100
AcDbEntity
  8
1
  6
Continuous
 62
   252
370
    18
100
AcDbLine
 10
773.212962
 20
511.29322
 30
0.0
 11
778.317628
 21
540.24322
 31
0.0
  0
LINE
  5
E0
330
1F
100
AcDbEntity
  8
1
  6
Continuous
 62
   252
370
    18
100
AcDbLine
 10
778.317628
 20
540.24322
 30
0.0
 11
773.212962
 21
569.19322
 31
0.0
  0
LINE
  5
E1
330
1F
100
AcDbEntity
  8
1
  6
Continuous
 62
   252
370
    18
100
AcDbLine
 10
665.212962
 20
569.19322
 30
0.0
 11
660.108295
 21
540.24322
 31
0.0
  0
LINE
  5
E2
330
1F
100
AcDbEntity
  8
1
  6
Continuous
 62
   252
370
    18
100
AcDbLine
 10
773.212962
 20
499.59322
 30
0.0
 11
773.212962
 21
511.29322
 31
0.0
  0
LINE
  5
E3
330
1F
100
AcDbEntity
  8
1
  6
Continuous
 62
    30
370
    18
100
AcDbLine
 10
701.212962
 20
747.372957
 30
0.0
 11
701.212962
 21
748.481164
 31
0.0
  0
LINE
  5
E4
330
1F
100
AcDbEntity
  8
1
  6
Continuous
 62
    30
370
    13
100
AcDbLine
 10
709.712962
 20
667.09322
 30
0.0
 11
709.712962
 21
524.44322
 31
0.0
  0
LINE
  5
E5
330
1F
100
AcDbEntity
  8
1
  6
Continuous
 62
    30
370
    18
100
AcDbLine
 10
700.212962
 20
667.09322
 30
0.0
 11
700.212962
 21
745.047751
 31
0.0
  0
LINE
  5
E6
330
1F
100
AcDbEntity
  8
1
  6
Continuous
 62
    30
370
    18
100
AcDbLine
 10
738.212962
 20
749.09322
 30
0.0
 11
738.212962
 21
667.09322
 31
0.0
  0
LINE
  5
E7
330
1F
100
AcDbEntity
  8
1
  6
Continuous
 62
    30
370
    13
100
AcDbLine
 10
728.712962
 20
758.59322
 30
0.0
 11
728.712962
 21
667.09322
 31
0.0
  0
LINE
  5
E8
330
1F
100
AcDbEntity
  8
1
  6
Continuous
 62
    30
370
    13
100
AcDbLine
 10
709.712962
 20
758.59322
 30
0.0
 11
709.712962
 21
667.09322
 31
0.0
  0
LINE
  5
E9
330
1F
100
AcDbEntity
  8
1
  6
Continuous
 62
    30
370
    13
100
AcDbLine
 10
700.212962
 20
524.44322
 30
0.0
 11
709.712962
 21
524.44322
 31
0.0
  0
LINE
  5
EA
330
1F
100
AcDbEntity
  8
1
  6
Continuous
 62
    30
370
    18
100
AcDbLine
 10
700.212962
 20
524.44322
 30
0.0
 11
700.212962
 21
667.09322
 31
0.0
  0
LINE
  5
EB
330
1F
100
AcDbEntity
  8
1
  6
Continuous
 62
    30
370
    13
100
AcDbLine
 10
738.212962
 20
524.44322
 30
0.0
 11
728.712962
 21
524.44322
 31
0.0
  0
LINE
  5
EC
330
1F
100
AcDbEntity
  8
1
  6
Continuous
 62
    30
370
    18
100
AcDbLine
 10
738.212962
 20
667.09322
 30
0.0
 11
738.212962
 21
524.44322
 31
0.0
  0
LINE
  5
ED
330
1F
100
AcDbEntity
  8
1
  6
Continuous
 62
    30
370
    13
100
AcDbLine
 10
728.712962
 20
524.44322
 30
0.0
 11
728.712962
 21
667.09322
 31
0.0
  0
LINE
  5
EE
330
1F
100
AcDbEntity
  8
1
  6
Continuous
 62
    30
370
    18
100
AcDbLine
 10
700.212962
 20
747.337661
 30
0.0
 11
700.212962
 21
746.391019
 31
0.0
  0
LINE
  5
EF
330
1F
100
AcDbEntity
  8
1
  6
Continuous
 62
    30
370
    18
100
AcDbLine
 10
700.212962
 20
746.015896
 30
0.0
 11
700.212962
 21
745.047743
 31
0.0
  0
LINE
  5
F0
330
1F
100
AcDbEntity
  8
1
  6
Continuous
 62
    30
370
    18
100
AcDbLine
 10
700.212962
 20
749.09322
 30
0.0
 11
700.212962
 21
747.337661
 31
0.0
  0
LINE
  5
F1
330
1F
100
AcDbEntity
  8
1
  6
Continuous
 62
    30
370
    18
100
AcDbLine
 10
700.212962
 20
746.015896
 30
0.0
 11
700.212962
 21
746.39105
 31
0.0
  0
LINE
  5
F2
330
1F
100
AcDbEntity
  8
1
  6
Continuous
 62
    30
370
    13
100
AcDbLine
 10
728.712962
 20
667.09322
 30
0.0
 11
709.712962
 21
667.09322
 31
0.0
  0
LINE
  5
F3
330
1F
100
AcDbEntity
  8
1
  6
Continuous
 62
    30
370
    13
100
AcDbLine
 10
700.212962
 20
667.09322
 30
0.0
 11
709.712962
 21
667.09322
 31
0.0
  0
LINE
  5
F4
330
1F
100
AcDbEntity
  8
1
  6
Continuous
 62
    30
370
    13
100
AcDbLine
 10
728.712962
 20
667.09322
 30
0.0
 11
738.212962
 21
667.09322
 31
0.0
  0
LINE
  5
F5
330
1F
100
AcDbEntity
  8
1
  6
Continuous
 62
    30
370
    18
100
AcDbLine
 10
446.238572
 20
288.3965
 30
0.0
 11
443.254456
 21
288.3965
 31
0.0
  0
LINE
  5
F6
330
1F
100
AcDbEntity
  8
1
  6
Continuous
 62
    30
370
    18
100
AcDbLine
 10
383.216131
 20
324.3965
 30
0.0
 11
386.200248
 21
324.3965
 31
0.0
  0
LINE
  5
F7
330
1F
100
AcDbEntity
  8
1
  6
Continuous
 62
    30
370
    18
100
AcDbLine
 10
332.727352
 20
325.3965
 30
0.0
 11
389.289366
 21
325.3965
 31
0.0
  0
LINE
  5
F8
330
1F
100
AcDbEntity
  8
1
  6
Continuous
 62
    30
370
    13
100
AcDbLine
 10
506.227352
 20
315.8965
 30
0.0
 11
323.227352
 21
315.8965
 31
0.0
  0
LINE
  5
F9
330
1F
100
AcDbEntity
  8
1
  6
Continuous
 62
    30
370
    18
100
AcDbLine
 10
431.604251
 20
287.3965
 30
0.0
 11
332.727352
 21
287.3965
 31
0.0
  0
LINE
  5
FA
330
1F
100
AcDbEntity
  8
1
  6
Continuous
 62
    30
370
    13
100
AcDbLine
 10
323.227352
 20
296.8965
 30
0.0
 11
506.227352
 21
296.8965
 31
0.0
  0
LINE
  5
FB
330
1F
100
AcDbEntity
  8
1
  6
Continuous
 62
   252
370
    18
100
AcDbLine
 10
398.850219
 20
333.8965
 30
0.0
 11
393.942697
 21
325.396422
 31
0.0
  0
LINE
  5
FC
330
1F
100
AcDbEntity
  8
1
  6
Continuous
 62
   252
370
    18
100
AcDbLine
 10
430.604484
 20
333.8965
 30
0.0
 11
398.850219
 21
333.8965
 31
0.0
  0
LINE
  5
FD
330
1F
100
AcDbEntity
  8
1
  6
Continuous
 62
   252
370
    18
100
AcDbLine
 10
393.942697
 20
287.396578
 30
0.0
 11
398.850219
 21
278.8965
 31
0.0
  0
LINE
  5
FE
330
1F
100
AcDbEntity
  8
1
  6
Continuous
 62
   252
370
    18
100
AcDbLine
 10
398.850219
 20
278.8965
 30
0.0
 11
430.604484
 21
278.8965
 31
0.0
  0
LINE
  5
FF
330
1F
100
AcDbEntity
  8
1
  6
Continuous
 62
   252
370
    18
100
AcDbLine
 10
430.604484
 20
278.8965
 30
0.0
 11
435.512006
 21
287.396578
 31
0.0
  0
LINE
  5
100
330
1F
100
AcDbEntity
  8
1
  6
Continuous
 62
   252
370
    18
100
AcDbLine
 10
435.512006
 20
325.396422
 30
0.0
 11
430.604484
 21
333.8965
 31
0.0
  0
LINE
  5
101
330
1F
100
AcDbEntity
  8
1
  6
Continuous
 62
    30
370
    18
100
AcDbLine
 10
431.604276
 20
287.3965
 30
0.0
 11
435.604475
 21
287.3965
 31
0.0
  0
LINE
  5
102
330
1F
100
AcDbEntity
  8
1
  6
Continuous
 62
    30
370
    18
100
AcDbLine
 10
397.850427
 20
325.3965
 30
0.0
 11
393.850228
 21
325.3965
 31
0.0
  0
LINE
  5
103
330
1F
100
AcDbEntity
  8
1
  6
Continuous
 62
    30
370
    18
100
AcDbLine
 10
392.474009
 20
325.3965
 30
0.0
 11
389.289366
 21
325.3965
 31
0.0
  0
LINE
  5
104
330
1F
100
AcDbEntity
  8
1
  6
Continuous
 62
    30
370
    18
100
AcDbLine
 10
436.980694
 20
287.3965
 30
0.0
 11
440.165337
 21
287.3965
 31
0.0
  0
LINE
  5
105
330
1F
100
AcDbEntity
  8
1
  6
Continuous
 62
    30
370
    18
100
AcDbLine
 10
436.980694
 20
287.3965
 30
0.0
 11
435.604475
 21
287.3965
 31
0.0
  0
LINE
  5
106
330
1F
100
AcDbEntity
  8
1
  6
Continuous
 62
    30
370
    18
100
AcDbLine
 10
496.727352
 20
287.3965
 30
0.0
 11
440.165337
 21
287.3965
 31
0.0
  0
LINE
  5
107
330
1F
100
AcDbEntity
  8
1
  6
Continuous
 62
    30
370
    18
100
AcDbLine
 10
506.227352
 20
296.8965
 30
0.0
 11
506.227352
 21
315.8965
 31
0.0
  0
LINE
  5
108
330
1F
100
AcDbEntity
  8
1
  6
Continuous
 62
    30
370
    18
100
AcDbLine
 10
323.227352
 20
296.8965
 30
0.0
 11
323.227352
 21
315.8965
 31
0.0
  0
LINE
  5
109
330
1F
100
AcDbEntity
  8
1
  6
Continuous
 62
    30
370
    18
100
AcDbLine
 10
496.727352
 20
325.3965
 30
0.0
 11
397.850452
 21
325.3965
 31
0.0
  0
LINE
  5
10A
330
1F
100
AcDbEntity
  8
1
  6
Continuous
 62
    30
370
    18
100
AcDbLine
 10
392.474009
 20
325.3965
 30
0.0
 11
393.850228
 21
325.3965
 31
0.0
  0
ARC
  5
10B
330
1F
100
AcDbEntity
  8
1
  6
Continuous
 62
    30
370
    18
100
AcDbCircle
 10
414.727352
 20
667.09322
 30
0.0
 40
86.24264068711923
100
AcDbArc
 50
68.569112
 51
70.684042
  0
ARC
  5
10C
330
1F
100
AcDbEntity
  8
1
  6
Continuous
 62
    30
370
    18
100
AcDbCircle
 10
496.727352
 20
514.94322
 30
0.0
 40
9.5
100
AcDbArc
 50
270.0
 51
0.0
  0
ARC
  5
10D
330
1F
100
AcDbEntity
  8
1
  6
Continuous
 62
    30
370
    18
100
AcDbCircle
 10
332.727352
 20
514.94322
 30
0.0
 40
9.5
100
AcDbArc
 50
180.0
 51
270.0
  0
ARC
  5
10E
330
1F
100
AcDbEntity
  8
1
  6
Continuous
 62
    30
370
    13
100
AcDbCircle
 10
414.727352
 20
667.09322
 30
0.0
 40
81.99999999999994
100
AcDbArc
 50
74.253466
 51
75.250171
  0
ARC
  5
10F
330
1F
100
AcDbEntity
  8
1
  6
Continuous
 62
    30
370
    13
100
AcDbCircle
 10
414.727352
 20
667.09322
 30
0.0
 40
81.99999999999994
100
AcDbArc
 50
0.0
 51
71.927551
  0
ARC
  5
110
330
1F
100
AcDbEntity
  8
1
  6
Continuous
 62
    30
370
    18
100
AcDbCircle
 10
438.927352
 20
746.697387
 30
0.0
 40
2.0625
100
AcDbArc
 50
199.294258
 51
306.886759
  0
ARC
  5
111
330
1F
100
AcDbEntity
  8
1
  6
Continuous
 62
    30
370
    13
100
AcDbCircle
 10
414.727352
 20
667.09322
 30
0.0
 40
81.99999999999994
100
AcDbArc
 50
78.122738
 51
180.0
  0
ARC
  5
112
330
1F
100
AcDbEntity
  8
1
  6
Continuous
 62
    30
370
    18
100
AcDbCircle
 10
414.727352
 20
667.09322
 30
0.0
 40
91.49999999999994
100
AcDbArc
 50
360.0
 51
180.0
  0
ARC
  5
113
330
1F
100
AcDbEntity
  8
1
  6
Continuous
 62
    30
370
    18
100
AcDbCircle
 10
433.564852
 20
746.697387
 30
0.0
 40
2.0625
100
AcDbArc
 50
161.914497
 51
351.458412
  0
ARC
  5
114
330
1F
100
AcDbEntity
  8
1
  6
Continuous
 62
    30
370
    18
100
AcDbCircle
 10
414.727352
 20
665.59322
 30
0.0
 40
54.99999999999996
100
AcDbArc
 50
1.461776
 51
178.538224
  0
ARC
  5
115
330
1F
100
AcDbEntity
  8
1
  6
Continuous
 62
    30
370
    13
100
AcDbCircle
 10
414.727352
 20
665.59322
 30
0.0
 40
64.49999999999996
100
AcDbArc
 50
1.461776
 51
178.538224
  0
ARC
  5
116
330
1F
100
AcDbEntity
  8
1
  6
Continuous
 62
    30
370
    18
100
AcDbCircle
 10
728.712962
 20
749.09322
 30
0.0
 40
9.5
100
AcDbArc
 50
0.0
 51
90.0
  0
ARC
  5
117
330
1F
100
AcDbEntity
  8
1
  6
Continuous
 62
    30
370
    18
100
AcDbCircle
 10
709.712962
 20
749.09322
 30
0.0
 40
9.5
100
AcDbArc
 50
90.0
 51
180.0
  0
ARC
  5
118
330
1F
100
AcDbEntity
  8
1
  6
Continuous
 62
    30
370
    18
100
AcDbCircle
 10
719.212962
 20
524.44322
 30
0.0
 40
18.99999999999989
100
AcDbArc
 50
180.0
 51
360.0
  0
ARC
  5
119
330
1F
100
AcDbEntity
  8
1
  6
Continuous
 62
    30
370
    13
100
AcDbCircle
 10
719.212962
 20
524.44322
 30
0.0
 40
9.499999999999892
100
AcDbArc
 50
180.0
 51
360.0
  0
ARC
  5
11A
330
1F
100
AcDbEntity
  8
1
  6
Continuous
 62
   252
370
    18
100
AcDbCircle
 10
414.727352
 20
306.3965
 30
0.0
 40
53.99999999999999
100
AcDbArc
 50
20.59875
 51
159.395625
  0
ARC
  5
11B
330
1F
100
AcDbEntity
  8
1
  6
Continuous
 62
   252
370
    18
100
AcDbCircle
 10
414.727352
 20
306.3965
 30
0.0
 40
53.99999999999999
100
AcDbArc
 50
200.604375
 51
339.40125
  0
ARC
  5
11C
330
1F
100
AcDbEntity
  8
1
  6
Continuous
 62
   252
370
    18
100
AcDbCircle
 10
414.727352
 20
306.3965
 30
0.0
 40
52.99999999999999
100
AcDbArc
 50
21.00375
 51
158.990625
  0
ARC
  5
11D
330
1F
100
AcDbEntity
  8
1
  6
Continuous
 62
   252
370
    18
100
AcDbCircle
 10
414.727352
 20
306.3965
 30
0.0
 40
52.99999999999999
100
AcDbArc
 50
201.009374
 51
338.99625
  0
ARC
  5
11E
330
1F
100
AcDbEntity
  8
1
  6
Continuous
 62
   252
370
    18
100
AcDbCircle
 10
414.727352
 20
306.3965
 30
0.0
 40
59.10466609151007
100
AcDbArc
 50
18.748125
 51
161.24625
  0
ARC
  5
11F
330
1F
100
AcDbEntity
  8
1
  6
Continuous
 62
   252
370
    18
100
AcDbCircle
 10
414.727352
 20
306.3965
 30
0.0
 40
59.10466609151007
100
AcDbArc
 50
198.75375
 51
341.251875
  0
ARC
  5
120
330
1F
100
AcDbEntity
  8
1
  6
Continuous
 62
    30
370
    18
100
AcDbCircle
 10
496.727352
 20
296.8965
 30
0.0
 40
9.5
100
AcDbArc
 50
270.0
 51
0.0
  0
ARC
  5
121
330
1F
100
AcDbEntity
  8
1
  6
Continuous
 62
    30
370
    18
100
AcDbCircle
 10
332.727352
 20
296.8965
 30
0.0
 40
9.5
100
AcDbArc
 50
180.0
 51
270.0
  0
ARC
  5
122
330
1F
100
AcDbEntity
  8
1
  6
Continuous
 62
    30
370
    18
100
AcDbCircle
 10
332.727352
 20
315.8965
 30
0.0
 40
9.5
100
AcDbArc
 50
90.0
 51
180.0
  0
ARC
  5
123
330
1F
100
AcDbEntity
  8
1
  6
Continuous
 62
    30
370
    18
100
AcDbCircle
 10
496.727352
 20
315.8965
 30
0.0
 40
9.5
100
AcDbArc
 50
360.0
 51
90.0
  0
SPLINE
  5
124
330
1F
100
AcDbEntity
  8
1
  6
Continuous
 62
    30
370
    18
100
AcDbSpline
210
0.0
220
0.0
230
1.0
 70
     8
 71
     3
 72
    25
 73
    21
 74
     0
 42
0.000000001
 43
0.0000000001
 40
0.0
 40
0.0
 40
0.0
 40
0.0
 40
0.007858622661906
 40
0.0604549428183278
 40
0.1157339327490129
 40
0.1725513568492547
 40
0.2304039043841486
 40
0.2889645135441737
 40
0.3480245155944149
 40
0.407446837195029
 40
0.4671387247014578
 40
0.5270355495692375
 40
0.5870910151965895
 40
0.6472710852336198
 40
0.7075501168411197
 40
0.7679083311075119
 40
0.8283301137400844
 40
0.8949885918962472
 40
0.9609418537759943
 40
1.0
 40
1.0
 40
1.0
 40
1.0
 10
473.6827711796902
 20
511.3008759115957
 30
0.0
 10
473.6932003108396
 20
511.2735034525253
 30
0.0
 10
473.7748624553616
 20
511.0635607232581
 30
0.0
 10
473.9626589139842
 20
510.6745407288738
 30
0.0
 10
474.2532291679951
 20
510.133854231603
 30
0.0
 10
474.5924043347672
 20
509.5983306223826
 30
0.0
 10
474.9732766056162
 20
509.0766006482677
 30
0.0
 10
475.3946010136266
 20
508.5758676940061
 30
0.0
 10
475.853558975719
 20
508.1012288599379
 30
0.0
 10
476.3476288248598
 20
507.6569010481446
 30
0.0
 10
476.8740660487847
 20
507.2463444365161
 30
0.0
 10
477.4300337709751
 20
506.8725038339008
 30
0.0
 10
478.0125655795998
 20
506.5378975872324
 30
0.0
 10
478.6185811299149
 20
506.2446976867888
 30
0.0
 10
479.2448924627903
 20
505.9947135558069
 30
0.0
 10
479.888217998267
 20
505.7896064213169
 30
0.0
 10
480.5676128754463
 20
505.6247398865366
 30
0.0
 10
481.2781021773499
 20
505.5091644315407
 30
0.0
 10
481.9162642765345
 20
505.4510413153226
 30
0.0
 10
482.3074528832014
 20
505.4485799920142
 30
0.0
 10
482.4531851118765
 20
505.4516310592999
 30
0.0
  0
SPLINE
  5
125
330
1F
100
AcDbEntity
  8
1
  6
Continuous
 62
    30
370
    18
100
AcDbSpline
210
0.0
220
0.0
230
1.0
 70
     8
 71
     3
 72
    26
 73
    22
 74
     0
 42
0.000000001
 43
0.0000000001
 40
0.0
 40
0.0
 40
0.0
 40
0.0
 40
0.0192225802532606
 40
0.0822561359485931
 40
0.14459942317462
 40
0.206265112798779
 40
0.2672579992495831
 40
0.3275754819222358
 40
0.387207703312499
 40
0.4461373765886839
 40
0.5043393043441976
 40
0.5617795659411683
 40
0.6184143198400391
 40
0.6741881381160233
 40
0.729031745301244
 40
0.7828589804950107
 40
0.8355627213091021
 40
0.8870094021177652
 40
0.9370316071374135
 40
0.9854180134258977
 40
1.0
 40
1.0
 40
1.0
 40
1.0
 10
347.001464399266
 20
505.4505637503098
 30
0.0
 10
347.0731162779336
 20
505.4482509106305
 30
0.0
 10
347.3795580672921
 20
505.4431491366253
 30
0.0
 10
347.9180590900644
 20
505.4825919072611
 30
0.0
 10
348.6094322340891
 20
505.5729813125913
 30
0.0
 10
349.2847853002723
 20
505.7151271160169
 30
0.0
 10
349.9408836276175
 20
505.9026995291281
 30
0.0
 10
350.5747862454095
 20
506.1342078022461
 30
0.0
 10
351.1837478934748
 20
506.4066450146759
 30
0.0
 10
351.7652625390016
 20
506.7171674151487
 30
0.0
 10
352.3170686344774
 20
507.0626567608624
 30
0.0
 10
352.8371643524307
 20
507.4398393783669
 30
0.0
 10
353.3238179684833
 20
507.8452571103873
 30
0.0
 10
353.7755864194629
 20
508.2752706204624
 30
0.0
 10
354.1913071367158
 20
508.7260583001442
 30
0.0
 10
354.5701892837781
 20
509.1935712508998
 30
0.0
 10
354.9115500140978
 20
509.6736198752445
 30
0.0
 10
355.2158424706623
 20
510.1614307332117
 30
0.0
 10
355.4810509340172
 20
510.6530369593481
 30
0.0
 10
355.6640128316204
 20
511.0327980589594
 30
0.0
 10
355.7515481832199
 20
511.2504875993577
 30
0.0
 10
355.7712404868154
 20
511.301158431441
 30
0.0
  0
SPLINE
  5
126
330
1F
100
AcDbEntity
  8
1
  6
Continuous
 62
    30
370
    18
100
AcDbSpline
210
0.0
220
0.0
230
1.0
 70
     8
 71
     3
 72
    10
 73
     6
 74
     0
 42
0.000000001
 43
0.0000000001
 40
0.0
 40
0.0
 40
0.0
 40
0.0
 40
0.5089285714285723
 40
0.5089285714285723
 40
1.0
 40
1.0
 40
1.0
 40
1.0
 10
389.5609236249778
 20
740.0160267838653
 30
0.0
 10
390.0834719428017
 20
740.7476717058402
 30
0.0
 10
390.7527632813844
 20
741.1134941668276
 30
0.0
 10
392.356199215529
 20
741.1134941668276
 30
0.0
 10
393.0040159657079
 20
740.786364466137
 30
0.0
 10
393.5122478912627
 20
740.1285875410922
 30
0.0
  0
SPLINE
  5
127
330
1F
100
AcDbEntity
  8
1
  6
Continuous
 62
    30
370
    18
100
AcDbSpline
210
0.0
220
0.0
230
1.0
 70
     8
 71
     3
 72
    14
 73
    10
 74
     0
 42
0.000000001
 43
0.0000000001
 40
0.0
 40
0.0
 40
0.0
 40
0.0
 40
0.2525234868058105
 40
0.2525234868058105
 40
0.5073016476009592
 40
0.5073016476009592
 40
0.7605240019910653
 40
0.7605240019910653
 40
1.0
 40
1.0
 40
1.0
 40
1.0
 10
393.4836151067244
 20
734.3950239698463
 30
0.0
 10
392.9574876908332
 20
733.7407645684649
 30
0.0
 10
392.2953545483851
 20
733.4136348677742
 30
0.0
 10
390.6847604181059
 20
733.4136348677742
 30
0.0
 10
390.0297854717924
 20
733.730211997475
 30
0.0
 10
389.0235614863722
 20
735.0066812859687
 30
0.0
 10
388.7735220501746
 20
735.9427343817164
 30
0.0
 10
388.7735220501746
 20
738.3381679964516
 30
0.0
 10
389.0347962090866
 20
739.2843818618903
 30
0.0
 10
389.5609236249778
 20
740.0160267838653
 30
0.0
  0
SPLINE
  5
128
330
1F
100
AcDbEntity
  8
1
  6
Continuous
 62
    30
370
    18
100
AcDbSpline
210
0.0
220
0.0
230
1.0
 70
     8
 71
     3
 72
    10
 73
     6
 74
     0
 42
0.000000001
 43
0.0000000001
 40
0.0
 40
0.0
 40
0.0
 40
0.0
 40
0.4853146853146766
 40
0.4853146853146766
 40
1.0
 40
1.0
 40
1.0
 40
1.0
 10
393.5122478912627
 20
740.1285875410922
 30
0.0
 10
394.0169007187502
 20
739.4708106160474
 30
0.0
 10
394.2710166815276
 20
738.5351493215987
 30
0.0
 10
394.2710166815276
 20
736.0201199023098
 30
0.0
 10
394.0061634245483
 20
735.0457658475644
 30
0.0
 10
393.4836151067244
 20
734.3950239698463
 30
0.0
  0
SPLINE
  5
129
330
1F
100
AcDbEntity
  8
1
  6
Continuous
 62
    30
370
    18
100
AcDbSpline
210
0.0
220
0.0
230
1.0
 70
     8
 71
     3
 72
    10
 73
     6
 74
     0
 42
0.000000001
 43
0.0000000001
 40
0.0
 40
0.0
 40
0.0
 40
0.0
 40
0.5445783132530115
 40
0.5445783132530115
 40
1.0
 40
1.0
 40
1.0
 40
1.0
 10
400.2910596307044
 20
740.2587359166357
 30
0.0
 10
400.8136079485283
 20
740.7933995134636
 30
0.0
 10
401.4757410909763
 20
741.0572137882142
 30
0.0
 10
402.9610667889005
 20
741.0572137882142
 30
0.0
 10
403.5802507545411
 20
740.8356097974237
 30
0.0
 10
404.1529064453071
 20
740.3853667685161
 30
0.0
  0
SPLINE
  5
12A
330
1F
100
AcDbEntity
  8
1
  6
Continuous
 62
    30
370
    13
100
AcDbSpline
210
0.0
220
0.0
230
1.0
 70
     8
 71
     3
 72
    30
 73
    26
 74
     0
 42
0.000000001
 43
0.0000000001
 40
0.0
 40
0.0
 40
0.0
 40
0.0
 40
0.1249999999999998
 40
0.1249999999999998
 40
0.2499999999999996
 40
0.2499999999999996
 40
0.3749999999999993
 40
0.3749999999999993
 40
0.4999999999999991
 40
0.4999999999999991
 40
0.5624999999999992
 40
0.5624999999999992
 40
0.6249999999999993
 40
0.6249999999999993
 40
0.6874999999999994
 40
0.6874999999999994
 40
0.7499999999999996
 40
0.7499999999999996
 40
0.8124999999999997
 40
0.8124999999999997
 40
0.8749999999999998
 40
0.8749999999999998
 40
0.9374999999999999
 40
0.9374999999999999
 40
1.0
 40
1.0
 40
1.0
 40
1.0
 10
482.5449691356353
 20
536.4068886254579
 30
0.0
 10
482.5578716776351
 20
535.901270142787
 30
0.0
 10
482.5482772562359
 20
535.3980684824639
 30
0.0
 10
482.4941134477702
 20
534.3954224812899
 30
0.0
 10
482.4494954177101
 20
533.8959833660984
 30
0.0
 10
482.3359983072068
 20
532.8997114718557
 30
0.0
 10
482.2670844498153
 20
532.4028824288511
 30
0.0
 10
482.1177933488981
 20
531.4104558409466
 30
0.0
 10
482.0374117740663
 20
530.914858761354
 30
0.0
 10
481.9199069743598
 20
530.1711335973251
 30
0.0
 10
481.881272404736
 20
529.9231678748796
 30
0.0
 10
481.8072253648554
 20
529.4268902836392
 30
0.0
 10
481.7718103324315
 20
529.1785319431353
 30
0.0
 10
481.706439344614
 20
528.6814396617161
 30
0.0
 10
481.6765040545201
 20
528.4328190444222
 30
0.0
 10
481.6242298334425
 20
527.935372097488
 30
0.0
 10
481.6018973492933
 20
527.6865455932648
 30
0.0
 10
481.5666395624154
 20
527.1886378347028
 30
0.0
 10
481.5537205470087
 20
526.9395564101009
 30
0.0
 10
481.5386085873293
 20
526.4411030947368
 30
0.0
 10
481.5364203283269
 20
526.1917310770959
 30
0.0
 10
481.5434265028448
 20
525.6926787940927
 30
0.0
 10
481.5526227141468
 20
525.4429984805872
 30
0.0
 10
481.5822906030315
 20
524.9433325095831
 30
0.0
 10
481.6027605498565
 20
524.6933468989541
 30
0.0
 10
481.6284316332828
 20
524.4432204395317
 30
0.0
  0
SPLINE
  5
12B
330
1F
100
AcDbEntity
  8
1
  6
Continuous
 62
    30
370
    18
100
AcDbSpline
210
0.0
220
0.0
230
1.0
 70
     8
 71
     3
 72
   111
 73
   107
 74
     0
 42
0.000000001
 43
0.0000000001
 40
0.0
 40
0.0
 40
0.0
 40
0.0
 40
0.031249999999941
 40
0.031249999999941
 40
0.0624999999998821
 40
0.0624999999998821
 40
0.0703124999998677
 40
0.0703124999998677
 40
0.0781249999998532
 40
0.0781249999998532
 40
0.0937499999998238
 40
0.0937499999998238
 40
0.124999999999757
 40
0.124999999999757
 40
0.1406249999997238
 40
0.1406249999997238
 40
0.1562499999996905
 40
0.1562499999996905
 40
0.1874999999996328
 40
0.2187499999995752
 40
0.2187499999995752
 40
0.2265624999995628
 40
0.2265624999995628
 40
0.2343749999995504
 40
0.2499999999995259
 40
0.2499999999995259
 40
0.2812499999994858
 40
0.2812499999994858
 40
0.2968749999994656
 40
0.2968749999994656
 40
0.3046874999994557
 40
0.3046874999994557
 40
0.3124999999994457
 40
0.3124999999994457
 40
0.3437499999994204
 40
0.3437499999994204
 40
0.3749999999993951
 40
0.3749999999993951
 40
0.3828124999993924
 40
0.3828124999993924
 40
0.3906249999993897
 40
0.4062499999993904
 40
0.4062499999993904
 40
0.4374999999993918
 40
0.4374999999993918
 40
0.453124999999393
 40
0.453124999999393
 40
0.4609374999993953
 40
0.4609374999993953
 40
0.4687499999993976
 40
0.4687499999993976
 40
0.4999999999994191
 40
0.4999999999994191
 40
0.5312499999994407
 40
0.5312499999994407
 40
0.5468749999994513
 40
0.5468749999994513
 40
0.5624999999994621
 40
0.5624999999994621
 40
0.5937499999994825
 40
0.5937499999994825
 40
0.6015624999994875
 40
0.6015624999994875
 40
0.6093749999994925
 40
0.6093749999994925
 40
0.6249999999995022
 40
0.6249999999995022
 40
0.6562499999995204
 40
0.6562499999995204
 40
0.6718749999995278
 40
0.6718749999995278
 40
0.6796874999995315
 40
0.6796874999995315
 40
0.6874999999995351
 40
0.6874999999995351
 40
0.7187499999995575
 40
0.7187499999995575
 40
0.7499999999995798
 40
0.7499999999995798
 40
0.7578124999995866
 40
0.7578124999995866
 40
0.7656249999995933
 40
0.7812499999996072
 40
0.7812499999996072
 40
0.8124999999996351
 40
0.8124999999996351
 40
0.828124999999653
 40
0.828124999999653
 40
0.8359374999996618
 40
0.8359374999996618
 40
0.8437499999996707
 40
0.8437499999996707
 40
0.8749999999997312
 40
0.8749999999997312
 40
0.9062499999997918
 40
0.9062499999997918
 40
0.914062499999807
 40
0.914062499999807
 40
0.9218749999998221
 40
0.9374999999998613
 40
0.9374999999998613
 40
0.9687499999999307
 40
0.9687499999999307
 40
0.9843749999999654
 40
0.9843749999999654
 40
1.0
 40
1.0
 40
1.0
 40
1.0
 10
440.1653372169674
 20
745.0477513667385
 30
0.0
 10
440.2425412594809
 20
745.1056899075609
 30
0.0
 10
440.3147725548662
 20
745.1683261942965
 30
0.0
 10
440.4496907435811
 20
745.3025940272101
 30
0.0
 10
440.5123764722377
 20
745.3742267458747
 30
0.0
 10
440.5846694960961
 20
745.4694718648497
 30
0.0
 10
440.5988235412569
 20
745.4888073826772
 30
0.0
 10
440.6265144898152
 20
745.5280587190017
 30
0.0
 10
440.6400736800049
 20
745.5480105425055
 30
0.0
 10
440.6795254256331
 20
745.6083045101989
 30
0.0
 10
440.7042667148931
 20
745.649177536794
 30
0.0
 10
440.7739396470626
 20
745.7737662713067
 30
0.0
 10
440.814340904182
 20
745.8594422582489
 30
0.0
 10
440.8659904065017
 20
745.9918167229725
 30
0.0
 10
440.8817096431616
 20
746.0365873341126
 30
0.0
 10
440.910109797687
 20
746.1274383067451
 30
0.0
 10
440.9228206137453
 20
746.173678878858
 30
0.0
 10
440.955838165823
 20
746.3124324884369
 30
0.0
 10
440.9866330710446
 20
746.4983680170798
 30
0.0
 10
440.9919826172327
 20
746.6861379021291
 30
0.0
 10
440.9872241796371
 20
746.8041069734066
 30
0.0
 10
440.9858616705692
 20
746.8277755996164
 30
0.0
 10
440.9823344019466
 20
746.8748992267823
 30
0.0
 10
440.9758443164716
 20
746.9452826911931
 30
0.0
 10
440.9658183800421
 20
747.0147812353181
 30
0.0
 10
440.9411465305025
 20
747.1526382115246
 30
0.0
 10
440.918561257795
 20
747.2430276426604
 30
0.0
 10
440.8754343925647
 20
747.3764034843161
 30
0.0
 10
440.8595116696753
 20
747.4204928061404
 30
0.0
 10
440.8332480379777
 20
747.4860694214728
 30
0.0
 10
440.82408408969
 20
747.5078602026861
 30
0.0
 10
440.8050907264888
 20
747.5509423458848
 30
0.0
 10
440.7952481267357
 20
747.572269241356
 30
0.0
 10
440.7443252035724
 20
747.6778499337927
 30
0.0
 10
440.6981407111824
 20
747.758958133841
 30
0.0
 10
440.5949622438259
 20
747.914638865716
 30
0.0
 10
440.5379703042519
 20
747.9892122009641
 30
0.0
 10
440.4596103043332
 20
748.078202864697
 30
0.0
 10
440.4435491299603
 20
748.0958205356542
 30
0.0
 10
440.4109322682888
 20
748.1303767787379
 30
0.0
 10
440.3612202510968
 20
748.1812498280447
 30
0.0
 10
440.3091752011381
 20
748.2292791404222
 30
0.0
 10
440.2020033048092
 20
748.3215983714883
 30
0.0
 10
440.1264612233134
 20
748.378177306914
 30
0.0
 10
440.0068527043368
 20
748.4554647730951
 30
0.0
 10
439.9659303158014
 20
748.4799591988601
 30
0.0
 10
439.9029122759739
 20
748.5147377686917
 30
0.0
 10
439.8815894786039
 20
748.5260243398543
 30
0.0
 10
439.8387178991954
 20
748.5477642360476
 30
0.0
 10
439.817147585831
 20
748.5582315201489
 30
0.0
 10
439.7086324364142
 20
748.6085818853005
 30
0.0
 10
439.6197063736315
 20
748.6425354888778
 30
0.0
 10
439.4377000864827
 20
748.6980124470796
 30
0.0
 10
439.3446203059735
 20
748.7195371361158
 30
0.0
 10
439.2017580883439
 20
748.7421197964849
 30
0.0
 10
439.1541289934562
 20
748.7479370075326
 30
0.0
 10
439.0590626795798
 20
748.7562302423744
 30
0.0
 10
439.0115900945696
 20
748.7587116900426
 30
0.0
 10
438.869345078385
 20
748.7612517049388
 30
0.0
 10
438.7747450156793
 20
748.756429689563
 30
0.0
 10
438.6567588182634
 20
748.7421977776341
 30
0.0
 10
438.633174802579
 20
748.7389392883417
 30
0.0
 10
438.5860327453508
 20
748.7315888493871
 30
0.0
 10
438.5625138799505
 20
748.7275013923294
 30
0.0
 10
438.4925168776604
 20
748.7140880001166
 30
0.0
 10
438.4464386325097
 20
748.7035886745452
 30
0.0
 10
438.3098976484165
 20
748.6675444985297
 30
0.0
 10
438.2211206979868
 20
748.637475611781
 30
0.0
 10
438.0912244119953
 20
748.5833874441688
 30
0.0
 10
438.0484725346101
 20
748.563854986128
 30
0.0
 10
437.9851700990106
 20
748.5322593833115
 30
0.0
 10
437.9641725874326
 20
748.5213247101497
 30
0.0
 10
437.9227212650244
 20
748.4988254416262
 30
0.0
 10
437.9022470432853
 20
748.487252267649
 30
0.0
 10
437.8011103938691
 20
748.4277905185976
 30
0.0
 10
437.7241323309246
 20
748.3751381610398
 30
0.0
 10
437.5777744841962
 20
748.2598296795693
 30
0.0
 10
437.5083946157771
 20
748.1971742920956
 30
0.0
 10
437.426549496816
 20
748.1123270162195
 30
0.0
 10
437.4104133674351
 20
748.0950136062224
 30
0.0
 10
437.3788727384731
 20
748.059985596225
 30
0.0
 10
437.3325704253361
 20
748.0067521618387
 30
0.0
 10
437.2892508349066
 20
747.9514676199404
 30
0.0
 10
437.2065312245138
 20
747.8381883657962
 30
0.0
 10
437.1565916608236
 20
747.7590678824788
 30
0.0
 10
437.0896160438107
 20
747.6348553370156
 30
0.0
 10
437.0686178696252
 20
747.5925260964807
 30
0.0
 10
437.039172535673
 20
747.5275982175
 30
0.0
 10
437.0296845380623
 20
747.5056767303142
 30
0.0
 10
437.0115375603465
 20
747.4616704023621
 30
0.0
 10
437.0028653223226
 20
747.4395599639937
 30
0.0
 10
436.9614868860577
 20
747.328477293174
 30
0.0
 10
436.9347007278166
 20
747.2379204615314
 30
0.0
 10
436.8936251153651
 20
747.0534634819161
 30
0.0
 10
436.8793339249115
 20
746.9595637238713
 30
0.0
 10
436.8696492260212
 20
746.8400134784328
 30
0.0
 10
436.8681229246789
 20
746.8159587179214
 30
0.0
 10
436.8659213050179
 20
746.7680065293521
 30
0.0
 10
436.8638828258755
 20
746.6961963733178
 30
0.0
 10
436.8655828580993
 20
746.6247364767808
 30
0.0
 10
436.8738947788681
 20
746.482279635113
 30
0.0
 10
436.8859620723595
 20
746.3879233122113
 30
0.0
 10
436.9139850568478
 20
746.2473378250977
 30
0.0
 10
436.9249854251794
 20
746.2006347416975
 30
0.0
 10
436.950400684411
 20
746.1075580704764
 30
0.0
 10
436.9647431942963
 20
746.0614590046979
 30
0.0
 10
436.9806939119455
 20
746.0158962667942
 30
0.0
  0
SPLINE
  5
12C
330
1F
100
AcDbEntity
  8
1
  6
Continuous
 62
    30
370
    18
100
AcDbSpline
210
0.0
220
0.0
230
1.0
 70
     8
 71
     3
 72
    69
 73
    65
 74
     0
 42
0.000000001
 43
0.0000000001
 40
0.0
 40
0.0
 40
0.0
 40
0.0
 40
0.0624999999999983
 40
0.0624999999999983
 40
0.0937499999999974
 40
0.0937499999999974
 40
0.1093749999999969
 40
0.1093749999999969
 40
0.1249999999999963
 40
0.1249999999999963
 40
0.1874999999999946
 40
0.1874999999999946
 40
0.2187499999999937
 40
0.2187499999999937
 40
0.234374999999987
 40
0.234374999999987
 40
0.2499999999999803
 40
0.2499999999999803
 40
0.312499999999964
 40
0.312499999999964
 40
0.3281249999999618
 40
0.3281249999999618
 40
0.3437499999999596
 40
0.3437499999999596
 40
0.3749999999999565
 40
0.3749999999999565
 40
0.4374999999999487
 40
0.4374999999999487
 40
0.4531249999999473
 40
0.4531249999999473
 40
0.4687499999999459
 40
0.4687499999999459
 40
0.4999999999999459
 40
0.4999999999999459
 40
0.5624999999999443
 40
0.5624999999999443
 40
0.5781249999999423
 40
0.5781249999999423
 40
0.5937499999999403
 40
0.5937499999999403
 40
0.624999999999938
 40
0.6562499999999357
 40
0.6562499999999357
 40
0.671874999999936
 40
0.671874999999936
 40
0.6874999999999364
 40
0.6874999999999364
 40
0.749999999999933
 40
0.749999999999933
 40
0.781249999999932
 40
0.781249999999932
 40
0.796874999999936
 40
0.796874999999936
 40
0.8124999999999399
 40
0.8124999999999399
 40
0.8749999999999545
 40
0.8749999999999545
 40
0.8906249999999601
 40
0.8906249999999601
 40
0.9062499999999658
 40
0.9062499999999658
 40
0.9374999999999771
 40
0.9374999999999771
 40
1.0
 40
1.0
 40
1.0
 40
1.0
 10
435.6044750858502
 20
746.3910496564158
 30
0.0
 10
435.6236857907663
 20
746.5189563270483
 30
0.0
 10
435.6306580174657
 20
746.6465590984051
 30
0.0
 10
435.6235700696172
 20
746.8375410325651
 30
0.0
 10
435.6182630844417
 20
746.9011309217228
 30
0.0
 10
435.605811542068
 20
746.9964105652998
 30
0.0
 10
435.6009113063932
 20
747.0281528931081
 30
0.0
 10
435.5895835550461
 20
747.0916023292366
 30
0.0
 10
435.5831716901919
 20
747.1232026962806
 30
0.0
 10
435.5476384000851
 20
747.2795520723878
 30
0.0
 10
435.5080115613069
 20
747.4004008034817
 30
0.0
 10
435.4321452890126
 20
747.5755493492222
 30
0.0
 10
435.4041007150977
 20
747.6329047143158
 30
0.0
 10
435.3577786881443
 20
747.7173625944498
 30
0.0
 10
435.3416246179061
 20
747.7452468842597
 30
0.0
 10
435.3082297964446
 20
747.7999137181745
 30
0.0
 10
435.2909496287966
 20
747.8267706927919
 30
0.0
 10
435.2016781317313
 20
747.9587148921726
 30
0.0
 10
435.1211504625235
 20
748.0568420697819
 30
0.0
 10
435.00901841248
 20
748.1702435326993
 30
0.0
 10
434.9860136402429
 20
748.192457075931
 30
0.0
 10
434.9388256993441
 20
748.2359354237117
 30
0.0
 10
434.9145790135212
 20
748.2572507801406
 30
0.0
 10
434.8407163787236
 20
748.3191776916308
 30
0.0
 10
434.789881018343
 20
748.3578885495463
 30
0.0
 10
434.6327125162954
 20
748.4665117874496
 30
0.0
 10
434.5217568004568
 20
748.5289801251636
 30
0.0
 10
434.375123479446
 20
748.5943311625308
 30
0.0
 10
434.3453485515551
 20
748.606778007849
 30
0.0
 10
434.2851924556481
 20
748.630275656565
 30
0.0
 10
434.254954500418
 20
748.6412732869958
 30
0.0
 10
434.1637702948765
 20
748.6720565132774
 30
0.0
 10
434.1023547182237
 20
748.689637185049
 30
0.0
 10
433.9162658470062
 20
748.7337242310326
 30
0.0
 10
433.7897668336467
 20
748.7516524509209
 30
0.0
 10
433.6284702262744
 20
748.7591586378563
 30
0.0
 10
433.5962427653963
 20
748.759897931273
 30
0.0
 10
433.5320538768829
 20
748.759876041259
 30
0.0
 10
433.5000592127679
 20
748.7591164356156
 30
0.0
 10
433.4043690227572
 20
748.7546255790274
 30
0.0
 10
433.2775644071542
 20
748.7427484407244
 30
0.0
 10
433.1522947787952
 20
748.7192166846735
 30
0.0
 10
433.0589211837517
 20
748.6971279710692
 30
0.0
 10
433.0278932358998
 20
748.6890238772435
 30
0.0
 10
432.9660328520475
 20
748.6713064077727
 30
0.0
 10
432.9352910192748
 20
748.6617153098196
 30
0.0
 10
432.7835778595948
 20
748.6104809971621
 30
0.0
 10
432.6675119903081
 20
748.5588000456257
 30
0.0
 10
432.5011136933471
 20
748.4655529177442
 30
0.0
 10
432.4469395401001
 20
748.431832220576
 30
0.0
 10
432.3676626976444
 20
748.3771713395106
 30
0.0
 10
432.3415546575775
 20
748.3582536549948
 30
0.0
 10
432.2905435272704
 20
748.3194450673528
 30
0.0
 10
432.2655708637614
 20
748.2995082051107
 30
0.0
 10
432.1433275109694
 20
748.1971997495211
 30
0.0
 10
432.0538475646068
 20
748.1070243212339
 30
0.0
 10
431.9523883067623
 20
747.9838112668117
 30
0.0
 10
431.9326203140041
 20
747.9586396686607
 30
0.0
 10
431.8941497813319
 20
747.9072186745799
 30
0.0
 10
431.8754019060931
 20
747.8809002525813
 30
0.0
 10
431.8211977453116
 20
747.8008941891474
 30
0.0
 10
431.7877711646178
 20
747.7461863629912
 30
0.0
 10
431.6954363305399
 20
747.5780389735735
 30
0.0
 10
431.6444026054741
 20
747.4606107521721
 30
0.0
 10
431.604250924626
 20
747.3376611943846
 30
0.0
  0
SPLINE
  5
12D
330
1F
100
AcDbEntity
  8
1
  6
Continuous
 62
    30
370
    13
100
AcDbSpline
210
0.0
220
0.0
230
1.0
 70
     8
 71
     3
 72
    57
 73
    53
 74
     0
 42
0.000000001
 43
0.0000000001
 40
0.0
 40
0.0
 40
0.0
 40
0.0
 40
0.0625152876586447
 40
0.1250305753172894
 40
0.1250305753172894
 40
0.1406593972319508
 40
0.1406593972319508
 40
0.1562882191466122
 40
0.1562882191466122
 40
0.1875458629759346
 40
0.1875458629759346
 40
0.2500611506345793
 40
0.2500611506345793
 40
0.3125764382932242
 40
0.3125764382932242
 40
0.3438340821225467
 40
0.3438340821225467
 40
0.3516484930798771
 40
0.3516484930798771
 40
0.3594629040372075
 40
0.375091725951868
 40
0.375091725951868
 40
0.43760701361051
 40
0.43760701361051
 40
0.500122301269152
 40
0.500122301269152
 40
0.5626375889277941
 40
0.5626375889277941
 40
0.6251528765864361
 40
0.6251528765864361
 40
0.6876681642450782
 40
0.6876681642450782
 40
0.7501834519037202
 40
0.7501834519037202
 40
0.7658122738183808
 40
0.7736266847757111
 40
0.7736266847757111
 40
0.7814410957330412
 40
0.7814410957330412
 40
0.8126987395623623
 40
0.8126987395623623
 40
0.875214027221004
 40
0.875214027221004
 40
0.9377293148796458
 40
0.9377293148796458
 40
0.9689869587089668
 40
0.9689869587089668
 40
0.9846157806236273
 40
0.9846157806236273
 40
0.9924301915809576
 40
0.9924301915809576
 40
1.0
 40
1.0
 40
1.0
 40
1.0
 10
481.6284316332828
 20
524.4432204395317
 30
0.0
 10
481.6605934133207
 20
523.8164831853219
 30
0.0
 10
481.7234430485587
 20
522.5694807213929
 30
0.0
 10
481.7835333243493
 20
521.3352204348569
 30
0.0
 10
481.8202758455058
 20
520.5678442968799
 30
0.0
 10
481.8275907899451
 20
520.4144193931496
 30
0.0
 10
481.8420817140248
 20
520.109214295763
 30
0.0
 10
481.8492626017537
 20
519.957332937128
 30
0.0
 10
481.8706162057
 20
519.5038295335106
 30
0.0
 10
481.8845999643918
 20
519.2043468233944
 30
0.0
 10
481.9258287223223
 20
518.3143243104597
 30
0.0
 10
481.952352568887
 20
517.7321903440119
 30
0.0
 10
482.0036182055594
 20
516.5901376074968
 30
0.0
 10
482.0283598144236
 20
516.0302183434461
 30
0.0
 10
482.0642104880218
 20
515.2073222453026
 30
0.0
 10
482.075950114422
 20
514.9358590458116
 30
0.0
 10
482.0903669376922
 20
514.6001482667659
 30
0.0
 10
482.0932392127827
 20
514.5331449343618
 30
0.0
 10
482.0989440766203
 20
514.3998305803111
 30
0.0
 10
482.1074450370677
 20
514.2008235726613
 30
0.0
 10
482.1157792460308
 20
514.0046928634601
 30
0.0
 10
482.1431986028686
 20
513.3572508798649
 30
0.0
 10
482.1639807261005
 20
512.8594973269821
 30
0.0
 10
482.2034248783552
 20
511.9035027454267
 30
0.0
 10
482.2220865548836
 20
511.4452632138241
 30
0.0
 10
482.2574079088349
 20
510.5685597838496
 30
0.0
 10
482.2740682594182
 20
510.1500733905094
 30
0.0
 10
482.3054409290808
 20
509.3543877163953
 30
0.0
 10
482.3198922852968
 20
508.9838265393875
 30
0.0
 10
482.3465247005618
 20
508.2953894966396
 30
0.0
 10
482.3587052607956
 20
507.9775188953654
 30
0.0
 10
482.3809091816336
 20
507.3941654874639
 30
0.0
 10
482.390932440914
 20
507.1286805195078
 30
0.0
 10
482.4021365089281
 20
506.8303242018237
 30
0.0
 10
482.4053980749729
 20
506.7433356019345
 30
0.0
 10
482.4085099651153
 20
506.6601638394068
 30
0.0
 10
482.4105512388201
 20
506.6055693634787
 30
0.0
 10
482.4115554478466
 20
506.5786925757064
 30
0.0
 10
482.4164795972812
 20
506.4468153900461
 30
0.0
 10
482.4201202670225
 20
506.3490318512131
 30
0.0
 10
482.4301764626869
 20
506.0783720175242
 30
0.0
 10
482.4357288389328
 20
505.928132721067
 30
0.0
 10
482.4446216788824
 20
505.6869571156924
 30
0.0
 10
482.4479620017985
 20
505.5960219355204
 30
0.0
 10
482.4513188742321
 20
505.5045645013948
 30
0.0
 10
482.4521615891749
 20
505.4815828238066
 30
0.0
 10
482.4530060285425
 20
505.4585495743552
 30
0.0
 10
482.4532175269603
 20
505.4527792670341
 30
0.0
 10
482.4534287470104
 20
505.4470162737407
 30
0.0
 10
482.4534814961363
 20
505.4455769629709
 30
0.0
 10
482.453550263038
 20
505.4437005694675
 30
0.0
 10
482.4535673709675
 20
505.4432337416791
 30
0.0
 10
482.4535678481769
 20
505.4432207197679
 30
0.0
  0
SPLINE
  5
12E
330
1F
100
AcDbEntity
  8
1
  6
Continuous
 62
    30
370
    13
100
AcDbSpline
210
0.0
220
0.0
230
1.0
 70
     8
 71
     3
 72
    59
 73
    55
 74
     0
 42
0.000000001
 43
0.0000000001
 40
0.0
 40
0.0
 40
0.0
 40
0.0
 40
0.0000273983929365
 40
0.0000273983929365
 40
0.0625256859933784
 40
0.0625256859933784
 40
0.1250239735938203
 40
0.1250239735938203
 40
0.187522261194262
 40
0.187522261194262
 40
0.2031468330943724
 40
0.2031468330943724
 40
0.2109591190444277
 40
0.2109591190444277
 40
0.2187714049944829
 40
0.2500205487947034
 40
0.2500205487947034
 40
0.3125188363951446
 40
0.3750171239955858
 40
0.3750171239955858
 40
0.4062662677958063
 40
0.4062662677958063
 40
0.4140785537458616
 40
0.4140785537458616
 40
0.4218908396959168
 40
0.4218908396959168
 40
0.4375154115960272
 40
0.4375154115960272
 40
0.500013699196469
 40
0.500013699196469
 40
0.5625119867969108
 40
0.5625119867969108
 40
0.6250102743973527
 40
0.6250102743973527
 40
0.6328225603474079
 40
0.6328225603474079
 40
0.6406348462974631
 40
0.6406348462974631
 40
0.6562594181975736
 40
0.6562594181975736
 40
0.6875085619977943
 40
0.6875085619977943
 40
0.7500068495982356
 40
0.8125051371986768
 40
0.8125051371986768
 40
0.843754280998897
 40
0.843754280998897
 40
0.8593788528990073
 40
0.8593788528990073
 40
0.8750034247991175
 40
0.8750034247991175
 40
0.9375017123995588
 40
0.9375017123995588
 40
1.0
 40
1.0
 40
1.0
 40
1.0
 10
347.0011354872414
 20
505.4432197702855
 30
0.0
 10
347.0011355238674
 20
505.4432207697146
 30
0.0
 10
347.001135560494
 20
505.4432217691436
 30
0.0
 10
347.0011404620078
 20
505.4433555164164
 30
0.0
 10
347.0022757731057
 20
505.4743577671163
 30
0.0
 10
347.0067481505683
 20
505.5962064762242
 30
0.0
 10
347.0100853854493
 20
505.6870577662772
 30
0.0
 10
347.0189877385736
 20
505.9284904392722
 30
0.0
 10
347.0245526046742
 20
506.0790682415612
 30
0.0
 10
347.0329706901477
 20
506.3056330106741
 30
0.0
 10
347.0347276313142
 20
506.3528675755897
 30
0.0
 10
347.0374750391627
 20
506.4266348180055
 30
0.0
 10
347.0384093700476
 20
506.4517060472771
 30
0.0
 10
347.0403102544777
 20
506.5026796290853
 30
0.0
 10
347.0451462127314
 20
506.6322768256194
 30
0.0
 10
347.0503996606342
 20
506.7726164831057
 30
0.0
 10
347.0638087630513
 20
507.1296813676678
 30
0.0
 10
347.0838185664957
 20
507.6596714871881
 30
0.0
 10
347.1081976946036
 20
508.2958890390178
 30
0.0
 10
347.1282200877795
 20
508.8134480590397
 30
0.0
 10
347.1351845217803
 20
508.9927122950648
 30
0.0
 10
347.1442684625675
 20
509.2253760128568
 30
0.0
 10
347.146104185248
 20
509.2723381880673
 30
0.0
 10
347.1498139476299
 20
509.3671262827765
 30
0.0
 10
347.1516890625549
 20
509.4149795994991
 30
0.0
 10
347.157364898139
 20
509.5596470782564
 30
0.0
 10
347.1612102449145
 20
509.657419601603
 30
0.0
 10
347.1807454682627
 20
510.1528431129285
 30
0.0
 10
347.1973583664779
 20
510.5701277076622
 30
0.0
 10
347.2326240631878
 20
511.4454365278064
 30
0.0
 10
347.2512767369012
 20
511.9034633968736
 30
0.0
 10
347.2907560091224
 20
512.8603027951427
 30
0.0
 10
347.3115821632927
 20
513.3591122576936
 30
0.0
 10
347.3363500813894
 20
513.9439086813717
 30
0.0
 10
347.33912071477
 20
514.0092151546331
 30
0.0
 10
347.3446997629241
 20
514.1404901466299
 30
0.0
 10
347.3475090835444
 20
514.2064797403436
 30
0.0
 10
347.3559708221859
 20
514.4048937668126
 30
0.0
 10
347.3616643408852
 20
514.5379361330411
 30
0.0
 10
347.3789034942116
 20
514.9393363631344
 30
0.0
 10
347.3906076472283
 20
515.2099659265665
 30
0.0
 10
347.4263692576932
 20
516.0307893301427
 30
0.0
 10
347.4757800733836
 20
517.1490047244118
 30
0.0
 10
347.5288687170902
 20
518.3142078839821
 30
0.0
 10
347.5701813015275
 20
519.2060225728089
 30
0.0
 10
347.5842018852719
 20
519.5062848131741
 30
0.0
 10
347.6056257165906
 20
519.9612512341611
 30
0.0
 10
347.6128401993518
 20
520.1138301762476
 30
0.0
 10
347.6273417427153
 20
520.419232596823
 30
0.0
 10
347.6346335203162
 20
520.5721576198117
 30
0.0
 10
347.6713002015686
 20
521.3378938122929
 30
0.0
 10
347.7012978222924
 20
521.9540301023886
 30
0.0
 10
347.7627027578124
 20
523.1933250194261
 30
0.0
 10
347.7941099718795
 20
523.816483477373
 30
0.0
 10
347.8262717369305
 20
524.4432204395317
 30
0.0
  0
SPLINE
  5
12F
330
1F
100
AcDbEntity
  8
1
  6
Continuous
 62
    30
370
    18
100
AcDbSpline
210
0.0
220
0.0
230
1.0
 70
     8
 71
     3
 72
   115
 73
   111
 74
     0
 42
0.000000001
 43
0.0000000001
 40
0.0
 40
0.0
 40
0.0
 40
0.0
 40
0.0312500000000012
 40
0.0312500000000012
 40
0.0625000000000023
 40
0.0625000000000023
 40
0.0703124999999993
 40
0.0703124999999993
 40
0.0781249999999963
 40
0.0937499999999913
 40
0.0937499999999913
 40
0.1249999999999807
 40
0.1249999999999807
 40
0.1406249999999716
 40
0.1406249999999716
 40
0.1484374999999709
 40
0.1484374999999709
 40
0.1562499999999702
 40
0.1562499999999702
 40
0.1874999999999749
 40
0.1874999999999749
 40
0.2187499999999796
 40
0.2187499999999796
 40
0.2265624999999786
 40
0.2265624999999786
 40
0.2343749999999777
 40
0.2343749999999777
 40
0.2499999999999758
 40
0.2499999999999758
 40
0.2812499999999806
 40
0.2812499999999806
 40
0.2968749999999831
 40
0.2968749999999831
 40
0.3124999999999855
 40
0.3124999999999855
 40
0.3437499999999903
 40
0.3437499999999903
 40
0.3749999999999952
 40
0.3749999999999952
 40
0.382812499999998
 40
0.382812499999998
 40
0.3906250000000007
 40
0.4062499999999997
 40
0.4062499999999997
 40
0.4374999999999969
 40
0.4374999999999969
 40
0.4453124999999974
 40
0.4453124999999974
 40
0.453124999999998
 40
0.453124999999998
 40
0.4687499999999946
 40
0.4687499999999946
 40
0.4999999999999876
 40
0.4999999999999876
 40
0.5156249999999821
 40
0.5156249999999821
 40
0.5234374999999777
 40
0.5234374999999777
 40
0.5312499999999732
 40
0.5312499999999732
 40
0.5624999999999571
 40
0.5624999999999571
 40
0.5703124999999538
 40
0.5703124999999538
 40
0.5781249999999504
 40
0.5781249999999504
 40
0.5937499999999448
 40
0.5937499999999448
 40
0.6249999999999324
 40
0.6249999999999324
 40
0.6406249999999263
 40
0.6406249999999263
 40
0.6484374999999244
 40
0.6484374999999244
 40
0.6562499999999226
 40
0.6562499999999226
 40
0.6874999999999223
 40
0.6874999999999223
 40
0.7187499999999221
 40
0.7187499999999221
 40
0.734374999999922
 40
0.734374999999922
 40
0.7499999999999218
 40
0.7499999999999218
 40
0.7812499999999223
 40
0.7812499999999223
 40
0.789062499999921
 40
0.789062499999921
 40
0.7968749999999195
 40
0.7968749999999195
 40
0.8124999999999231
 40
0.8124999999999231
 40
0.8437499999999365
 40
0.8437499999999365
 40
0.8593749999999428
 40
0.8593749999999428
 40
0.8671874999999499
 40
0.8671874999999499
 40
0.874999999999957
 40
0.874999999999957
 40
0.9062499999999615
 40
0.9062499999999615
 40
0.937499999999966
 40
0.937499999999966
 40
0.9453124999999675
 40
0.9453124999999675
 40
0.9531249999999688
 40
0.9687499999999791
 40
0.9687499999999791
 40
1.0
 40
1.0
 40
1.0
 40
1.0
 10
443.2544556238537
 20
748.4811643474317
 30
0.0
 10
443.1733914374406
 20
748.4341105240165
 30
0.0
 10
443.0963159972027
 20
748.3820241264062
 30
0.0
 10
442.9497561179586
 20
748.2679517177521
 30
0.0
 10
442.8802725857088
 20
748.2059657668551
 30
0.0
 10
442.7982457360475
 20
748.1220165239451
 30
0.0
 10
442.7821160654707
 20
748.1049338218338
 30
0.0
 10
442.7505514080615
 20
748.0703434465471
 30
0.0
 10
442.7041787796807
 20
748.0177507062485
 30
0.0
 10
442.660691415454
 20
747.9630530449476
 30
0.0
 10
442.5775207459191
 20
747.8508591759075
 30
0.0
 10
442.5271261336471
 20
747.7723444799337
 30
0.0
 10
442.4592976969327
 20
747.6487994590505
 30
0.0
 10
442.4379869390727
 20
747.6066525429317
 30
0.0
 10
442.4080388908886
 20
747.5419295639988
 30
0.0
 10
442.3983783270763
 20
747.52006955353
 30
0.0
 10
442.3798159737907
 20
747.476002193892
 30
0.0
 10
442.3709339080807
 20
747.4538454166936
 30
0.0
 10
442.3285022225828
 20
747.3424516796435
 30
0.0
 10
442.3008603810704
 20
747.2513919912537
 30
0.0
 10
442.2582111988241
 20
747.0654153044314
 30
0.0
 10
442.24320117646
 20
746.9704987877215
 30
0.0
 10
442.232813934583
 20
746.8493519729975
 30
0.0
 10
442.2311572345873
 20
746.8249970846749
 30
0.0
 10
442.2287058562132
 20
746.7760319994917
 30
0.0
 10
442.2279142853659
 20
746.7514359523666
 30
0.0
 10
442.2268610899008
 20
746.6779056540242
 30
0.0
 10
442.2279069112495
 20
746.6290180561969
 30
0.0
 10
442.2362253283952
 20
746.482765702888
 30
0.0
 10
442.2486545088921
 20
746.3858086675307
 30
0.0
 10
442.2778143425768
 20
746.2412871405409
 30
0.0
 10
442.2892929484088
 20
746.1932662866687
 30
0.0
 10
442.3158771819835
 20
746.0975556959828
 30
0.0
 10
442.3310535830533
 20
746.0496990820941
 30
0.0
 10
442.3814041411039
 20
745.908927629439
 30
0.0
 10
442.4214811413185
 20
745.8182247614502
 30
0.0
 10
442.5144187909246
 20
745.6430755035046
 30
0.0
 10
442.5672776204737
 20
745.5586279421367
 30
0.0
 10
442.6416814110587
 20
745.4571960030866
 30
0.0
 10
442.656981395228
 20
745.4371204793993
 30
0.0
 10
442.6881620219997
 20
745.3977226967108
 30
0.0
 10
442.7358977290634
 20
745.3396264366812
 30
0.0
 10
442.7864854772857
 20
745.2844905092477
 30
0.0
 10
442.8914087340822
 20
745.178115716124
 30
0.0
 10
442.9663348691847
 20
745.1123749969483
 30
0.0
 10
443.0663284930615
 20
745.0368072023142
 30
0.0
 10
443.0866455817373
 20
745.0220256585836
 30
0.0
 10
443.1279258502578
 20
744.9931367543869
 30
0.0
 10
443.1489211323421
 20
744.9790104638953
 30
0.0
 10
443.2123848056145
 20
744.9379810650087
 30
0.0
 10
443.2554642407545
 20
744.9123251985429
 30
0.0
 10
443.3869573280679
 20
744.8403258183542
 30
0.0
 10
443.4776141668328
 20
744.7989250744874
 30
0.0
 10
443.6180864135538
 20
744.7467120754923
 30
0.0
 10
443.6656612289038
 20
744.7309621302735
 30
0.0
 10
443.7381762615981
 20
744.7098775735204
 30
0.0
 10
443.762585566082
 20
744.7032623682019
 30
0.0
 10
443.8115320024132
 20
744.6909591079615
 30
0.0
 10
443.836064427225
 20
744.6852699473778
 30
0.0
 10
443.9590191569943
 20
744.659111004168
 30
0.0
 10
444.0583148205496
 20
744.6454655931016
 30
0.0
 10
444.1835900432084
 20
744.63747326727
 30
0.0
 10
444.2087031474184
 20
744.6363302797581
 30
0.0
 10
444.2590463664355
 20
744.6349634447441
 30
0.0
 10
444.2843273334228
 20
744.6347408692451
 30
0.0
 10
444.3598481107661
 20
744.6354603811401
 30
0.0
 10
444.4098733216598
 20
744.6377781616311
 30
0.0
 10
444.5590037581993
 20
744.6500925004613
 30
0.0
 10
444.6571686858057
 20
744.665423616163
 30
0.0
 10
444.8025222887915
 20
744.6990007845434
 30
0.0
 10
444.8506566260923
 20
744.7119632793754
 30
0.0
 10
444.9223700053481
 20
744.7341110811457
 30
0.0
 10
444.946217504432
 20
744.741953400021
 30
0.0
 10
444.9936403880323
 20
744.7585166799793
 30
0.0
 10
445.0171190574466
 20
744.7672027995792
 30
0.0
 10
445.1333665900331
 20
744.812617234465
 30
0.0
 10
445.2227150757164
 20
744.855267188017
 30
0.0
 10
445.3942882320669
 20
744.9527210028309
 30
0.0
 10
445.4765127956653
 20
745.0075256666094
 30
0.0
 10
445.5943219079551
 20
745.099032891926
 30
0.0
 10
445.6322653719807
 20
745.1307840757399
 30
0.0
 10
445.7053287594656
 20
745.1964726470395
 30
0.0
 10
445.740492266826
 20
745.2304440924962
 30
0.0
 10
445.8419632002398
 20
745.3356416433041
 30
0.0
 10
445.9042688256943
 20
745.4101354700877
 30
0.0
 10
445.9754784844184
 20
745.5086233070259
 30
0.0
 10
445.9893853807966
 20
745.5285906373687
 30
0.0
 10
446.0165234636498
 20
745.5690677642046
 30
0.0
 10
446.0297419707177
 20
745.5895621903898
 30
0.0
 10
446.0680891076244
 20
745.6513804526064
 30
0.0
 10
446.0920144636741
 20
745.6931904145443
 30
0.0
 10
446.1590415424348
 20
745.8203368047953
 30
0.0
 10
446.1974152748636
 20
745.9073806152335
 30
0.0
 10
446.2457725165214
 20
746.0412387503206
 30
0.0
 10
446.2603523337906
 20
746.0864092027389
 30
0.0
 10
446.2798978764623
 20
746.154996522748
 30
0.0
 10
446.2860346919073
 20
746.1780380250336
 30
0.0
 10
446.297462166887
 20
746.2241321873734
 30
0.0
 10
446.3027576582308
 20
746.247195661778
 30
0.0
 10
446.3271844787266
 20
746.3625945878678
 30
0.0
 10
446.3401944510214
 20
746.4551715152786
 30
0.0
 10
446.3536784906475
 20
746.6408825315641
 30
0.0
 10
446.3541523068062
 20
746.7340162837819
 30
0.0
 10
446.3467669848615
 20
746.8508601692964
 30
0.0
 10
446.3448854736781
 20
746.8742760546062
 30
0.0
 10
446.3403443429687
 20
746.9208450044546
 30
0.0
 10
446.3323609418397
 20
746.9904064471547
 30
0.0
 10
446.3209123911255
 20
747.0591156290888
 30
0.0
 10
446.2934581186323
 20
747.195446312277
 30
0.0
 10
446.2691035123779
 20
747.2848875549633
 30
0.0
 10
446.2385722968932
 20
747.3729566638298
 30
0.0
  0
SPLINE
  5
130
330
1F
100
AcDbEntity
  8
1
  6
Continuous
 62
    30
370
    18
100
AcDbSpline
210
0.0
220
0.0
230
1.0
 70
     8
 71
     3
 72
     8
 73
     4
 74
     0
 42
0.000000001
 43
0.0000000001
 40
0.0
 40
0.0
 40
0.0
 40
0.0
 40
1.0
 40
1.0
 40
1.0
 40
1.0
 10
431.0927775977767
 20
740.6245583776233
 30
0.0
 10
430.9639300673543
 20
741.127564261481
 30
0.0
 10
430.6131784567602
 20
741.5531846247453
 30
0.0
 10
430.0441018640615
 20
741.9049369910794
 30
0.0
  0
SPLINE
  5
131
330
1F
100
AcDbEntity
  8
1
  6
Continuous
 62
    30
370
    18
100
AcDbSpline
210
0.0
220
0.0
230
1.0
 70
     8
 71
     3
 72
     8
 73
     4
 74
     0
 42
0.000000001
 43
0.0000000001
 40
0.0
 40
0.0
 40
0.0
 40
0.0
 40
1.0
 40
1.0
 40
1.0
 40
1.0
 10
431.8443881919069
 20
732.2598871061983
 30
0.0
 10
431.583114032995
 20
732.7101301351059
 30
0.0
 10
431.4256337180344
 20
733.1709257350037
 30
0.0
 10
431.371947247025
 20
733.6422739058913
 30
0.0
  0
SPLINE
  5
132
330
1F
100
AcDbEntity
  8
1
  6
Continuous
 62
    30
370
    18
100
AcDbSpline
210
0.0
220
0.0
230
1.0
 70
     8
 71
     3
 72
     8
 73
     4
 74
     0
 42
0.000000001
 43
0.0000000001
 40
0.0
 40
0.0
 40
0.0
 40
0.0
 40
1.0
 40
1.0
 40
1.0
 40
1.0
 10
428.4943524009262
 20
740.8496798920771
 30
0.0
 10
428.8379458153858
 20
740.7124964692068
 30
0.0
 10
429.0849035820286
 20
740.5331027623764
 30
0.0
 10
429.2423838969892
 20
740.3079812479225
 30
0.0
  0
SPLINE
  5
133
330
1F
100
AcDbEntity
  8
1
  6
Continuous
 62
    30
370
    18
100
AcDbSpline
210
0.0
220
0.0
230
1.0
 70
     8
 71
     3
 72
     8
 73
     4
 74
     0
 42
0.000000001
 43
0.0000000001
 40
0.0
 40
0.0
 40
0.0
 40
0.0
 40
1.0
 40
1.0
 40
1.0
 40
1.0
 10
424.4750252713629
 20
739.1542334863467
 30
0.0
 10
424.6325055863235
 20
739.8858784083217
 30
0.0
 10
424.9295707259084
 20
740.3853667685161
 30
0.0
 10
425.3590624939828
 20
740.65269856693
 30
0.0
  0
SPLINE
  5
134
330
1F
100
AcDbEntity
  8
1
  6
Continuous
 62
    30
370
    18
100
AcDbSpline
210
0.0
220
0.0
230
1.0
 70
     8
 71
     3
 72
    12
 73
     8
 74
     0
 42
0.000000001
 43
0.0000000001
 40
0.0
 40
0.0
 40
0.0
 40
0.0
 40
0.4723557692307743
 40
0.4723557692307743
 40
0.730769230769235
 40
0.730769230769235
 40
1.0
 40
1.0
 40
1.0
 40
1.0
 10
431.371947247025
 20
733.6422739058913
 30
0.0
 10
431.3146816779484
 20
734.113622076779
 30
0.0
 10
431.2896279914775
 20
735.042248323901
 30
0.0
 10
431.2896279914775
 20
737.1809027112124
 30
0.0
 10
431.2896279914775
 20
737.9371702988307
 30
0.0
 10
431.2896279914775
 20
739.4813631870375
 30
0.0
 10
431.2252042262663
 20
740.1250700174288
 30
0.0
 10
431.0927775977767
 20
740.6245583776233
 30
0.0
  0
SPLINE
  5
135
330
1F
100
AcDbEntity
  8
1
  6
Continuous
 62
    30
370
    18
100
AcDbSpline
210
0.0
220
0.0
230
1.0
 70
     8
 71
     3
 72
    10
 73
     6
 74
     0
 42
0.000000001
 43
0.0000000001
 40
0.0
 40
0.0
 40
0.0
 40
0.0
 40
0.5597826086956532
 40
0.5597826086956532
 40
1.0
 40
1.0
 40
1.0
 40
1.0
 10
425.3590624939828
 20
740.65269856693
 30
0.0
 10
425.7885542620572
 20
740.9235478890073
 30
0.0
 10
426.371947247025
 20
741.0572137882142
 30
0.0
 10
427.6890553357867
 20
741.0572137882142
 30
0.0
 10
428.1507589864667
 20
740.9903808386107
 30
0.0
 10
428.4943524009262
 20
740.8496798920771
 30
0.0
  0
SPLINE
  5
136
330
1F
100
AcDbEntity
  8
1
  6
Continuous
 62
    30
370
    18
100
AcDbSpline
210
0.0
220
0.0
230
1.0
 70
     8
 71
     3
 72
     8
 73
     4
 74
     0
 42
0.000000001
 43
0.0000000001
 40
0.0
 40
0.0
 40
0.0
 40
0.0
 40
1.0
 40
1.0
 40
1.0
 40
1.0
 10
414.6933502534674
 20
739.921053644955
 30
0.0
 10
414.6933502534674
 20
739.8718083136682
 30
0.0
 10
414.7541949206113
 20
739.579853849611
 30
0.0
 10
414.8830424510336
 20
739.0416727291198
 30
0.0
  0
SPLINE
  5
137
330
1F
100
AcDbEntity
  8
1
  6
Continuous
 62
    30
370
    18
100
AcDbSpline
210
0.0
220
0.0
230
1.0
 70
     8
 71
     3
 72
     8
 73
     4
 74
     0
 42
0.000000001
 43
0.0000000001
 40
0.0
 40
0.0
 40
0.0
 40
0.0
 40
1.0
 40
1.0
 40
1.0
 40
1.0
 10
424.2173302105182
 20
741.6657453819722
 30
0.0
 10
423.4549823221861
 20
741.1557044507878
 30
0.0
 10
422.9789622792369
 20
740.3888842921795
 30
0.0
 10
422.7964282778053
 20
739.3688024298106
 30
0.0
  0
SPLINE
  5
138
330
1F
100
AcDbEntity
  8
1
  6
Continuous
 62
    30
370
    18
100
AcDbSpline
210
0.0
220
0.0
230
1.0
 70
     8
 71
     3
 72
    14
 73
    10
 74
     0
 42
0.000000001
 43
0.0000000001
 40
0.0
 40
0.0
 40
0.0
 40
0.0
 40
0.2283584819140888
 40
0.2283584819140888
 40
0.4664343460372897
 40
0.4664343460372897
 40
0.703045305681468
 40
0.703045305681468
 40
1.0
 40
1.0
 40
1.0
 40
1.0
 10
423.390558556975
 20
736.9346760547785
 30
0.0
 10
422.7964282778053
 20
736.4000124579507
 30
0.0
 10
422.4993631382205
 20
735.7211303909259
 30
0.0
 10
422.4993631382205
 20
734.0327190325222
 30
0.0
 10
422.8071655720071
 20
733.339766870844
 30
0.0
 10
424.0417236027429
 20
732.2877563228026
 30
0.0
 10
424.8866215491009
 20
732.0242130207545
 30
0.0
 10
427.2917754503178
 20
732.0242130207545
 30
0.0
 10
428.5337224796664
 20
732.5131488099589
 30
0.0
 10
429.6861920573328
 20
733.4875028647043
 30
0.0
  0
SPLINE
  5
139
330
1F
100
AcDbEntity
  8
1
  6
Continuous
 62
    30
370
    18
100
AcDbSpline
210
0.0
220
0.0
230
1.0
 70
     8
 71
     3
 72
     8
 73
     4
 74
     0
 42
0.000000001
 43
0.0000000001
 40
0.0
 40
0.0
 40
0.0
 40
0.0
 40
1.0
 40
1.0
 40
1.0
 40
1.0
 10
399.3855478196807
 20
738.1974670499179
 30
0.0
 10
399.4678670752283
 20
739.0416727291198
 30
0.0
 10
399.7685113128804
 20
739.7275898434713
 30
0.0
 10
400.2910596307044
 20
740.2587359166357
 30
0.0
  0
SPLINE
  5
13A
330
1F
100
AcDbEntity
  8
1
  6
Continuous
 62
    30
370
    18
100
AcDbSpline
210
0.0
220
0.0
230
1.0
 70
     8
 71
     3
 72
    18
 73
    14
 74
     0
 42
0.000000001
 43
0.0000000001
 40
0.0
 40
0.0
 40
0.0
 40
0.0
 40
0.1522013460459859
 40
0.1522013460459859
 40
0.3271873247335861
 40
0.3271873247335861
 40
0.5021733034211894
 40
0.5021733034211894
 40
0.6763180033651074
 40
0.6763180033651074
 40
0.850462703309026
 40
0.850462703309026
 40
1.0
 40
1.0
 40
1.0
 40
1.0
 10
440.6024411625583
 20
741.0185210279175
 30
0.0
 10
439.850830568428
 20
741.9647348933562
 30
0.0
 10
438.877315894126
 20
742.4360830642438
 30
0.0
 10
436.3075234818139
 20
742.4360830642438
 30
0.0
 10
435.2337940616277
 20
741.9471472750395
 30
0.0
 10
433.6804655004252
 20
739.9984391655486
 30
0.0
 10
433.2939229091581
 20
738.7778584543692
 30
0.0
 10
433.2939229091581
 20
735.8583138137961
 30
0.0
 10
433.691202794627
 20
734.6518031972703
 30
0.0
 10
435.2874805326371
 20
732.7382703244127
 30
0.0
 10
436.346893560554
 20
732.2598871061983
 30
0.0
 10
438.7949966385784
 20
732.2598871061983
 30
0.0
 10
439.7362994302749
 20
732.6925425167893
 30
0.0
 10
440.4807518282706
 20
733.5648883852979
 30
0.0
  0
SPLINE
  5
13B
330
1F
100
AcDbEntity
  8
1
  6
Continuous
 62
    30
370
    18
100
AcDbSpline
210
0.0
220
0.0
230
1.0
 70
     8
 71
     3
 72
     8
 73
     4
 74
     0
 42
0.000000001
 43
0.0000000001
 40
0.0
 40
0.0
 40
0.0
 40
0.0
 40
1.0
 40
1.0
 40
1.0
 40
1.0
 10
414.8830424510336
 20
739.0416727291198
 30
0.0
 10
415.0083108833887
 20
738.5034916086286
 30
0.0
 10
415.0763137466671
 20
738.2326422865514
 30
0.0
 10
415.0834719428017
 20
738.2361598102148
 30
0.0
  0
SPLINE
  5
13C
330
1F
100
AcDbEntity
  8
1
  6
Continuous
 62
    30
370
    18
100
AcDbSpline
210
0.0
220
0.0
230
1.0
 70
     8
 71
     3
 72
     8
 73
     4
 74
     0
 42
0.000000001
 43
0.0000000001
 40
0.0
 40
0.0
 40
0.0
 40
0.0
 40
1.0
 40
1.0
 40
1.0
 40
1.0
 10
429.6861920573328
 20
733.4875028647043
 30
0.0
 10
429.7541949206113
 20
732.9809794571833
 30
0.0
 10
429.8723051568318
 20
732.5729467122356
 30
0.0
 10
430.0405227659942
 20
732.2598871061983
 30
0.0
  0
SPLINE
  5
13D
330
1F
100
AcDbEntity
  8
1
  6
Continuous
 62
    30
370
    18
100
AcDbSpline
210
0.0
220
0.0
230
1.0
 70
     8
 71
     3
 72
    12
 73
     8
 74
     0
 42
0.000000001
 43
0.0000000001
 40
0.0
 40
0.0
 40
0.0
 40
0.0
 40
0.3610286924373484
 40
0.3610286924373484
 40
0.6814416569754974
 40
0.6814416569754974
 40
1.0
 40
1.0
 40
1.0
 40
1.0
 10
434.7828277051496
 20
728.9780375283012
 30
0.0
 10
435.5451755934817
 20
728.4750316444434
 30
0.0
 10
436.5007947774474
 20
728.2252874643463
 30
0.0
 10
438.6625700100888
 20
728.2252874643463
 30
0.0
 10
439.5358699385068
 20
728.41875126583
 30
0.0
 10
440.999053239861
 20
729.1973815358454
 30
0.0
 10
441.5115320716492
 20
729.7378226395829
 30
0.0
 10
441.7978599170322
 20
730.4342923249244
 30
0.0
  0
SPLINE
  5
13E
330
1F
100
AcDbEntity
  8
1
  6
Continuous
 62
    30
370
    18
100
AcDbSpline
210
0.0
220
0.0
230
1.0
 70
     8
 71
     3
 72
    10
 73
     6
 74
     0
 42
0.000000001
 43
0.0000000001
 40
0.0
 40
0.0
 40
0.0
 40
0.0
 40
0.5558035714285697
 40
0.5558035714285697
 40
1.0
 40
1.0
 40
1.0
 40
1.0
 10
439.5823982133815
 20
730.1388203372037
 30
0.0
 10
439.1672228375762
 20
729.7835504472063
 30
0.0
 10
438.51582698933
 20
729.6041567403759
 30
0.0
 10
436.9123910551854
 20
729.6041567403759
 30
0.0
 10
436.3647890508905
 20
729.7378226395829
 30
0.0
 10
435.9782464596234
 20
729.9981193906701
 30
0.0
  0
SPLINE
  5
13F
330
1F
100
AcDbEntity
  8
1
  6
Continuous
 62
    30
370
    18
100
AcDbSpline
210
0.0
220
0.0
230
1.0
 70
     8
 71
     3
 72
     8
 73
     4
 74
     0
 42
0.000000001
 43
0.0000000001
 40
0.0
 40
0.0
 40
0.0
 40
0.0
 40
1.0
 40
1.0
 40
1.0
 40
1.0
 10
429.5251326443049
 20
739.6537218465412
 30
0.0
 10
429.5537654288432
 20
739.446187950404
 30
0.0
 10
429.5716609191796
 20
739.0874005367432
 30
0.0
 10
429.5716609191796
 20
738.5808771292221
 30
0.0
  0
SPLINE
  5
140
330
1F
100
AcDbEntity
  8
1
  6
Continuous
 62
    30
370
    18
100
AcDbSpline
210
0.0
220
0.0
230
1.0
 70
     8
 71
     3
 72
     8
 73
     4
 74
     0
 42
0.000000001
 43
0.0000000001
 40
0.0
 40
0.0
 40
0.0
 40
0.0
 40
1.0
 40
1.0
 40
1.0
 40
1.0
 10
429.5716609191796
 20
738.5808771292221
 30
0.0
 10
429.1815392298454
 20
738.4436937063518
 30
0.0
 10
428.691202794627
 20
738.3276154254615
 30
0.0
 10
428.0934934173901
 20
738.2361598102148
 30
0.0
  0
SPLINE
  5
141
330
1F
100
AcDbEntity
  8
1
  6
Continuous
 62
    30
370
    18
100
AcDbSpline
210
0.0
220
0.0
230
1.0
 70
     8
 71
     3
 72
     8
 73
     4
 74
     0
 42
0.000000001
 43
0.0000000001
 40
0.0
 40
0.0
 40
0.0
 40
0.0
 40
1.0
 40
1.0
 40
1.0
 40
1.0
 10
404.1529064453071
 20
740.3853667685161
 30
0.0
 10
404.7219830380057
 20
739.9386412632717
 30
0.0
 10
405.0405227659942
 20
739.2105138649601
 30
0.0
 10
405.11210472734
 20
738.1974670499179
 30
0.0
  0
SPLINE
  5
142
330
1F
100
AcDbEntity
  8
1
  6
Continuous
 62
    30
370
    18
100
AcDbSpline
210
0.0
220
0.0
230
1.0
 70
     8
 71
     3
 72
     8
 73
     4
 74
     0
 42
0.000000001
 43
0.0000000001
 40
0.0
 40
0.0
 40
0.0
 40
0.0
 40
1.0
 40
1.0
 40
1.0
 40
1.0
 10
426.4900574832455
 20
738.0004857247709
 30
0.0
 10
425.0190481775905
 20
737.8246095416039
 30
0.0
 10
423.9882679342119
 20
737.4693396516063
 30
0.0
 10
423.390558556975
 20
736.9346760547785
 30
0.0
  0
SPLINE
  5
143
330
1F
100
AcDbEntity
  8
1
  6
Continuous
 62
    30
370
    18
100
AcDbSpline
210
0.0
220
0.0
230
1.0
 70
     8
 71
     3
 72
    10
 73
     6
 74
     0
 42
0.000000001
 43
0.0000000001
 40
0.0
 40
0.0
 40
0.0
 40
0.0
 40
0.4761235955056171
 40
0.4761235955056171
 40
1.0
 40
1.0
 40
1.0
 40
1.0
 10
430.0441018640615
 20
741.9049369910794
 30
0.0
 10
429.4750252713629
 20
742.2602068810768
 30
0.0
 10
428.5802507545411
 20
742.4360830642438
 30
0.0
 10
426.0319329306328
 20
742.4360830642438
 30
0.0
 10
424.9796780988504
 20
742.1793038368199
 30
0.0
 10
424.2173302105182
 20
741.6657453819722
 30
0.0
  0
SPLINE
  5
144
330
1F
100
AcDbEntity
  8
1
  6
Continuous
 62
    30
370
    18
100
AcDbSpline
210
0.0
220
0.0
230
1.0
 70
     8
 71
     3
 72
     8
 73
     4
 74
     0
 42
0.000000001
 43
0.0000000001
 40
0.0
 40
0.0
 40
0.0
 40
0.0
 40
1.0
 40
1.0
 40
1.0
 40
1.0
 10
429.2423838969892
 20
740.3079812479225
 30
0.0
 10
429.3962851138826
 20
740.0828597334687
 30
0.0
 10
429.4929207616993
 20
739.8647732663417
 30
0.0
 10
429.5251326443049
 20
739.6537218465412
 30
0.0
  0
SPLINE
  5
145
330
1F
100
AcDbEntity
  8
1
  6
Continuous
 62
    30
370
    18
100
AcDbSpline
210
0.0
220
0.0
230
1.0
 70
     8
 71
     3
 72
    10
 73
     6
 74
     0
 42
0.000000001
 43
0.0000000001
 40
0.0
 40
0.0
 40
0.0
 40
0.0
 40
0.5000000000000122
 40
0.5000000000000122
 40
1.0
 40
1.0
 40
1.0
 40
1.0
 10
440.4807518282706
 20
733.5648883852979
 30
0.0
 10
440.4807518282706
 20
732.6644023274825
 30
0.0
 10
440.4342235533958
 20
731.957380071151
 30
0.0
 10
440.2481104538969
 20
730.9302631614554
 30
0.0
 10
439.9939944911195
 20
730.4976077508645
 30
0.0
 10
439.5823982133815
 20
730.1388203372037
 30
0.0
  0
SPLINE
  5
146
330
1F
100
AcDbEntity
  8
1
  6
Continuous
 62
    30
370
    18
100
AcDbSpline
210
0.0
220
0.0
230
1.0
 70
     8
 71
     3
 72
    10
 73
     6
 74
     0
 42
0.000000001
 43
0.0000000001
 40
0.0
 40
0.0
 40
0.0
 40
0.0
 40
0.5632458233890203
 40
0.5632458233890203
 40
1.0
 40
1.0
 40
1.0
 40
1.0
 10
428.6017253429449
 20
734.103069505789
 30
0.0
 10
427.9574876908332
 20
733.6035811455946
 30
0.0
 10
427.2094561947702
 20
733.3573544891608
 30
0.0
 10
425.7098141045769
 20
733.3573544891608
 30
0.0
 10
425.2051612770895
 20
733.5050904830211
 30
0.0
 10
424.8579887645626
 20
733.804079994405
 30
0.0
  0
SPLINE
  5
147
330
1F
100
AcDbEntity
  8
1
  6
Continuous
 62
    30
370
    18
100
AcDbSpline
210
0.0
220
0.0
230
1.0
 70
     8
 71
     3
 72
    10
 73
     6
 74
     0
 42
0.000000001
 43
0.0000000001
 40
0.0
 40
0.0
 40
0.0
 40
0.0
 40
0.146095717884127
 40
0.146095717884127
 40
1.0
 40
1.0
 40
1.0
 40
1.0
 10
429.5716609191796
 20
737.2512531844792
 30
0.0
 10
429.5716609191796
 20
737.0472368120054
 30
0.0
 10
429.5716609191796
 20
736.8432204395317
 30
0.0
 10
429.5716609191796
 20
735.4467635451853
 30
0.0
 10
429.2495420931238
 20
734.5990403423201
 30
0.0
 10
428.6017253429449
 20
734.103069505789
 30
0.0
  0
SPLINE
  5
148
330
1F
100
AcDbEntity
  8
1
  6
Continuous
 62
    30
370
    18
100
AcDbSpline
210
0.0
220
0.0
230
1.0
 70
     8
 71
     3
 72
    12
 73
     8
 74
     0
 42
0.000000001
 43
0.0000000001
 40
0.0
 40
0.0
 40
0.0
 40
0.0
 40
0.2012383900928821
 40
0.2012383900928821
 40
0.6006191950464422
 40
0.6006191950464422
 40
1.0
 40
1.0
 40
1.0
 40
1.0
 10
424.8579887645626
 20
733.804079994405
 30
0.0
 10
424.5072371539685
 20
734.0995519821257
 30
0.0
 10
424.3318613486714
 20
734.4759270141031
 30
0.0
 10
424.3318613486714
 20
735.8407261954794
 30
0.0
 10
424.9796780988504
 20
736.3789073159707
 30
0.0
 10
427.5781032957008
 20
736.723624634978
 30
0.0
 10
428.6733073042906
 20
736.9557811967586
 30
0.0
 10
429.5716609191796
 20
737.2512531844792
 30
0.0
  0
SPLINE
  5
149
330
1F
100
AcDbEntity
  8
1
  6
Continuous
 62
    30
370
    18
100
AcDbSpline
210
0.0
220
0.0
230
1.0
 70
     8
 71
     3
 72
    14
 73
    10
 74
     0
 42
0.000000001
 43
0.0000000001
 40
0.0
 40
0.0
 40
0.0
 40
0.0
 40
0.2301392948363491
 40
0.2301392948363491
 40
0.4920741501435097
 40
0.4920741501435097
 40
0.7540090054506698
 40
0.7540090054506698
 40
1.0
 40
1.0
 40
1.0
 40
1.0
 10
388.9918470322792
 20
733.3010741105472
 30
0.0
 10
389.6468219785927
 20
732.4498333840188
 30
0.0
 10
390.5201219070107
 20
732.0242130207545
 30
0.0
 10
392.8465356507473
 20
732.0242130207545
 30
0.0
 10
393.8952113844624
 20
732.5025962389689
 30
0.0
 10
395.598862064491
 20
734.4090940644996
 30
0.0
 10
396.0247747344982
 20
735.6965077252825
 30
0.0
 10
396.0247747344982
 20
738.8341388329827
 30
0.0
 10
395.6418112412985
 20
740.0687896388154
 30
0.0
 10
394.8723051568318
 20
741.0150035042541
 30
0.0
  0
SPLINE
  5
14A
330
1F
100
AcDbEntity
  8
1
  6
Continuous
 62
    30
370
    18
100
AcDbSpline
210
0.0
220
0.0
230
1.0
 70
     8
 71
     3
 72
    10
 73
     6
 74
     0
 42
0.000000001
 43
0.0000000001
 40
0.0
 40
0.0
 40
0.0
 40
0.0
 40
0.329498767460969
 40
0.329498767460969
 40
1.0
 40
1.0
 40
1.0
 40
1.0
 10
441.7978599170322
 20
730.4342923249244
 30
0.0
 10
442.0841877624151
 20
731.1342795339292
 30
0.0
 10
442.2273516851066
 20
732.1895366329315
 30
0.0
 10
442.2273516851066
 20
736.4703629312176
 30
0.0
 10
442.2273516851066
 20
739.3406622405038
 30
0.0
 10
442.2273516851066
 20
742.2109615497901
 30
0.0
  0
SPLINE
  5
14B
330
1F
100
AcDbEntity
  8
1
  6
Continuous
 62
    30
370
    18
100
AcDbSpline
210
0.0
220
0.0
230
1.0
 70
     8
 71
     3
 72
     8
 73
     4
 74
     0
 42
0.000000001
 43
0.0000000001
 40
0.0
 40
0.0
 40
0.0
 40
0.0
 40
1.0
 40
1.0
 40
1.0
 40
1.0
 10
433.6375163236177
 20
731.4332690453132
 30
0.0
 10
433.6375163236177
 20
730.2971089020541
 30
0.0
 10
434.0169007187502
 20
729.4775258884956
 30
0.0
 10
434.7828277051496
 20
728.9780375283012
 30
0.0
  0
SPLINE
  5
14C
330
1F
100
AcDbEntity
  8
1
  6
Continuous
 62
    30
370
    18
100
AcDbSpline
210
0.0
220
0.0
230
1.0
 70
     8
 71
     3
 72
     8
 73
     4
 74
     0
 42
0.000000001
 43
0.0000000001
 40
0.0
 40
0.0
 40
0.0
 40
0.0
 40
1.0
 40
1.0
 40
1.0
 40
1.0
 10
435.9782464596234
 20
729.9981193906701
 30
0.0
 10
435.5952829664237
 20
730.2619336654207
 30
0.0
 10
435.3697997881847
 20
730.6558963157148
 30
0.0
 10
435.3053760229735
 20
731.1800073415527
 30
0.0
  0
SPLINE
  5
14D
330
1F
100
AcDbEntity
  8
1
  6
Continuous
 62
    30
370
    18
100
AcDbSpline
210
0.0
220
0.0
230
1.0
 70
     8
 71
     3
 72
     8
 73
     4
 74
     0
 42
0.000000001
 43
0.0000000001
 40
0.0
 40
0.0
 40
0.0
 40
0.0
 40
1.0
 40
1.0
 40
1.0
 40
1.0
 10
394.8723051568318
 20
741.0150035042541
 30
0.0
 10
394.0992199742977
 20
741.9612173696928
 30
0.0
 10
393.0505442405827
 20
742.4360830642438
 30
0.0
 10
391.7226988576192
 20
742.4360830642438
 30
0.0
  0
SPLINE
  5
14E
330
1F
100
AcDbEntity
  8
1
  6
Continuous
 62
    30
370
    13
100
AcDbSpline
210
0.0
220
0.0
230
1.0
 70
     8
 71
     3
 72
    30
 73
    26
 74
     0
 42
0.000000001
 43
0.0000000001
 40
0.0
 40
0.0
 40
0.0
 40
0.0
 40
0.0624999999999999
 40
0.0624999999999999
 40
0.1249999999999997
 40
0.1249999999999997
 40
0.1874999999999996
 40
0.1874999999999996
 40
0.2499999999999994
 40
0.2499999999999994
 40
0.3124999999999993
 40
0.3124999999999993
 40
0.3749999999999992
 40
0.3749999999999992
 40
0.437499999999999
 40
0.437499999999999
 40
0.4999999999999989
 40
0.4999999999999989
 40
0.6249999999999991
 40
0.6249999999999991
 40
0.7499999999999994
 40
0.7499999999999994
 40
0.8749999999999997
 40
0.8749999999999997
 40
1.0
 40
1.0
 40
1.0
 40
1.0
 10
347.8262717369305
 20
524.4432204395317
 30
0.0
 10
347.8519428203568
 20
524.6933468989541
 30
0.0
 10
347.8724127671818
 20
524.9433325095832
 30
0.0
 10
347.9020806560665
 20
525.4429984805873
 30
0.0
 10
347.9112768673685
 20
525.6926787940928
 30
0.0
 10
347.9182830418863
 20
526.191731077096
 30
0.0
 10
347.9160947828839
 20
526.441103094737
 30
0.0
 10
347.9009828232045
 20
526.9395564101009
 30
0.0
 10
347.8880638077978
 20
527.188637834703
 30
0.0
 10
347.85280602092
 20
527.6865455932649
 30
0.0
 10
347.8304735367707
 20
527.935372097488
 30
0.0
 10
347.7781993156931
 20
528.4328190444222
 30
0.0
 10
347.7482640255993
 20
528.6814396617161
 30
0.0
 10
347.6828930377818
 20
529.1785319431353
 30
0.0
 10
347.6474780053579
 20
529.4268902836392
 30
0.0
 10
347.5734309654773
 20
529.9231678748796
 30
0.0
 10
347.5347963958535
 20
530.1711335973251
 30
0.0
 10
347.4172915961469
 20
530.914858761354
 30
0.0
 10
347.3369100213152
 20
531.4104558409466
 30
0.0
 10
347.1876189203979
 20
532.4028824288511
 30
0.0
 10
347.1187050630065
 20
532.8997114718557
 30
0.0
 10
347.0052079525032
 20
533.8959833660983
 30
0.0
 10
346.960589922443
 20
534.3954224812898
 30
0.0
 10
346.9064261139774
 20
535.3980684824638
 30
0.0
 10
346.8968316925781
 20
535.9012701427869
 30
0.0
 10
346.909734234578
 20
536.4068886254578
 30
0.0
  0
SPLINE
  5
14F
330
1F
100
AcDbEntity
  8
1
  6
Continuous
 62
    30
370
    18
100
AcDbSpline
210
0.0
220
0.0
230
1.0
 70
     8
 71
     3
 72
    18
 73
    14
 74
     0
 42
0.000000001
 43
0.0000000001
 40
0.0
 40
0.0
 40
0.0
 40
0.0
 40
0.1704960286494758
 40
0.1704960286494758
 40
0.3509723126345314
 40
0.3509723126345314
 40
0.5325695452974931
 40
0.5325695452974931
 40
0.6897585477638204
 40
0.6897585477638204
 40
0.8469475502301519
 40
0.8469475502301519
 40
1.0
 40
1.0
 40
1.0
 40
1.0
 10
439.7720904109477
 20
734.4970321560832
 30
0.0
 10
439.2065929163164
 20
733.9236757989587
 30
0.0
 10
438.5587761661374
 20
733.6387563822279
 30
0.0
 10
437.0483967817423
 20
733.6387563822279
 30
0.0
 10
436.3934218354287
 20
733.9412634172753
 30
0.0
 10
435.316357917359
 20
735.1479924401095
 30
0.0
 10
435.0476809621288
 20
736.1010229465668
 30
0.0
 10
435.0476809621288
 20
738.5421843689254
 30
0.0
 10
435.3053760229735
 20
739.4321178557507
 30
0.0
 10
436.3289980702176
 20
740.7336016111868
 30
0.0
 10
436.9911312126657
 20
741.0572137882142
 30
0.0
 10
438.6017253429449
 20
741.0572137882142
 30
0.0
 10
439.2710166815276
 20
740.7406366585135
 30
0.0
 10
439.8114604896879
 20
740.1039648754488
 30
0.0
  0
SPLINE
  5
150
330
1F
100
AcDbEntity
  8
1
  6
Continuous
 62
    30
370
    18
100
AcDbSpline
210
0.0
220
0.0
230
1.0
 70
     8
 71
     3
 72
     8
 73
     4
 74
     0
 42
0.000000001
 43
0.0000000001
 40
0.0
 40
0.0
 40
0.0
 40
0.0
 40
1.0
 40
1.0
 40
1.0
 40
1.0
 10
406.8766000745125
 20
736.8080452028983
 30
0.0
 10
406.8766000745125
 20
738.3909308514017
 30
0.0
 10
406.6368005040043
 20
739.5657837549576
 30
0.0
 10
406.1607804610551
 20
740.3290863899026
 30
0.0
  0
SPLINE
  5
151
330
1F
100
AcDbEntity
  8
1
  6
Continuous
 62
    30
370
    18
100
AcDbSpline
210
0.0
220
0.0
230
1.0
 70
     8
 71
     3
 72
    16
 73
    12
 74
     0
 42
0.000000001
 43
0.0000000001
 40
0.0
 40
0.0
 40
0.0
 40
0.0
 40
0.1225706265942337
 40
0.1225706265942337
 40
0.2451412531884676
 40
0.2451412531884676
 40
0.4956375337524119
 40
0.4956375337524119
 40
0.7461338143163598
 40
0.7461338143163598
 40
1.0
 40
1.0
 40
1.0
 40
1.0
 10
406.1607804610551
 20
740.3290863899026
 30
0.0
 10
405.6847604181059
 20
741.095906548511
 30
0.0
 10
405.1013674331381
 20
741.6376051926654
 30
0.0
 10
403.7341519714345
 20
742.2777944993935
 30
0.0
 10
403.0219114560443
 20
742.4360830642438
 30
0.0
 10
400.7778169678554
 20
742.4360830642438
 30
0.0
 10
399.6074518998525
 20
741.9471472750395
 30
0.0
 10
397.9467503966313
 20
739.9984391655486
 30
0.0
 10
397.531575020826
 20
738.7250955994191
 30
0.0
 10
397.531575020826
 20
735.5663593497388
 30
0.0
 10
397.9610667889005
 20
734.3141209255895
 30
0.0
 10
398.8164712269821
 20
733.3995647731208
 30
0.0
  0
SPLINE
  5
152
330
1F
100
AcDbEntity
  8
1
  6
Continuous
 62
    30
370
    18
100
AcDbSpline
210
0.0
220
0.0
230
1.0
 70
     8
 71
     3
 72
    10
 73
     6
 74
     0
 42
0.000000001
 43
0.0000000001
 40
0.0
 40
0.0
 40
0.0
 40
0.0
 40
0.5704697986577181
 40
0.5704697986577181
 40
1.0
 40
1.0
 40
1.0
 40
1.0
 10
398.8164712269821
 20
733.3995647731208
 30
0.0
 10
399.6718756650637
 20
732.4814910969887
 30
0.0
 10
400.860136223403
 20
732.0242130207545
 30
0.0
 10
403.5265642835319
 20
732.0242130207545
 30
0.0
 10
404.4821834674975
 20
732.3020973901585
 30
0.0
 10
405.2445313558296
 20
732.8613836526297
 30
0.0
  0
SPLINE
  5
153
330
1F
100
AcDbEntity
  8
1
  6
Continuous
 62
    30
370
    18
100
AcDbSpline
210
0.0
220
0.0
230
1.0
 70
     8
 71
     3
 72
     8
 73
     4
 74
     0
 42
0.000000001
 43
0.0000000001
 40
0.0
 40
0.0
 40
0.0
 40
0.0
 40
1.0
 40
1.0
 40
1.0
 40
1.0
 10
405.2445313558296
 20
732.8613836526297
 30
0.0
 10
406.0068792441617
 20
733.4171523914375
 30
0.0
 10
406.5330066600529
 20
734.2121127393526
 30
0.0
 10
406.8193345054359
 20
735.2532997437015
 30
0.0
  0
SPLINE
  5
154
330
1F
100
AcDbEntity
  8
1
  6
Continuous
 62
    30
370
    18
100
AcDbSpline
210
0.0
220
0.0
230
1.0
 70
     8
 71
     3
 72
     8
 73
     4
 74
     0
 42
0.000000001
 43
0.0000000001
 40
0.0
 40
0.0
 40
0.0
 40
0.0
 40
1.0
 40
1.0
 40
1.0
 40
1.0
 10
405.0548391582634
 20
735.4678686871653
 30
0.0
 10
404.8186186858225
 20
734.7784340491505
 30
0.0
 10
404.4786043694302
 20
734.2648755943027
 30
0.0
 10
404.0312171110193
 20
733.9236757989587
 30
0.0
  0
SPLINE
  5
155
330
1F
100
AcDbEntity
  8
1
  6
Continuous
 62
    30
370
    18
100
AcDbSpline
210
0.0
220
0.0
230
1.0
 70
     8
 71
     3
 72
    10
 73
     6
 74
     0
 42
0.000000001
 43
0.0000000001
 40
0.0
 40
0.0
 40
0.0
 40
0.0
 40
0.4346793349168641
 40
0.4346793349168641
 40
1.0
 40
1.0
 40
1.0
 40
1.0
 10
404.0312171110193
 20
733.9236757989587
 30
0.0
 10
403.5874089506757
 20
733.5824760036146
 30
0.0
 10
403.0362278483135
 20
733.4136348677742
 30
0.0
 10
401.5294275619856
 20
733.4136348677742
 30
0.0
 10
400.8171870465956
 20
733.7020718081682
 30
0.0
 10
400.2481104538969
 20
734.2859807362828
 30
0.0
  0
SPLINE
  5
156
330
1F
100
AcDbEntity
  8
1
  6
Continuous
 62
    30
370
    18
100
AcDbSpline
210
0.0
220
0.0
230
1.0
 70
     8
 71
     3
 72
     8
 73
     4
 74
     0
 42
0.000000001
 43
0.0000000001
 40
0.0
 40
0.0
 40
0.0
 40
0.0
 40
1.0
 40
1.0
 40
1.0
 40
1.0
 10
400.2481104538969
 20
734.2859807362828
 30
0.0
 10
399.6790338611983
 20
734.866372140734
 30
0.0
 10
399.3604941332097
 20
735.7070602962725
 30
0.0
 10
399.288912171864
 20
736.8080452028983
 30
0.0
  0
SPLINE
  5
157
330
1F
100
AcDbEntity
  8
1
  6
Continuous
 62
    30
370
    18
100
AcDbSpline
210
0.0
220
0.0
230
1.0
 70
     8
 71
     3
 72
     8
 73
     4
 74
     0
 42
0.000000001
 43
0.0000000001
 40
0.0
 40
0.0
 40
0.0
 40
0.0
 40
1.0
 40
1.0
 40
1.0
 40
1.0
 10
417.6317897667101
 20
734.5497950110333
 30
0.0
 10
417.5924196879699
 20
734.7432588125171
 30
0.0
 10
417.3848320000673
 20
735.5593243024122
 30
0.0
 10
417.0018685068675
 20
736.9979914807186
 30
0.0
  0
SPLINE
  5
158
330
1F
100
AcDbEntity
  8
1
  6
Continuous
 62
    30
370
    18
100
AcDbSpline
210
0.0
220
0.0
230
1.0
 70
     8
 71
     3
 72
     8
 73
     4
 74
     0
 42
0.000000001
 43
0.0000000001
 40
0.0
 40
0.0
 40
0.0
 40
0.0
 40
1.0
 40
1.0
 40
1.0
 40
1.0
 10
391.7226988576192
 20
742.4360830642438
 30
0.0
 10
390.4378026514631
 20
742.4360830642438
 30
0.0
 10
389.4714461732956
 20
741.9330771803861
 30
0.0
 10
388.8307876192512
 20
740.9270654126706
 30
0.0
  0
SPLINE
  5
159
330
1F
100
AcDbEntity
  8
1
  6
Continuous
 62
    30
370
    18
100
AcDbSpline
210
0.0
220
0.0
230
1.0
 70
     8
 71
     3
 72
    10
 73
     6
 74
     0
 42
0.000000001
 43
0.0000000001
 40
0.0
 40
0.0
 40
0.0
 40
0.0
 40
0.4694444444444416
 40
0.4694444444444416
 40
1.0
 40
1.0
 40
1.0
 40
1.0
 10
439.8114604896879
 20
740.1039648754488
 30
0.0
 10
440.3519042978483
 20
739.4708106160474
 30
0.0
 10
440.6239157509621
 20
738.5597719872421
 30
0.0
 10
440.6239157509621
 20
736.0271549496365
 30
0.0
 10
440.3375879055791
 20
735.0668709895444
 30
0.0
 10
439.7720904109477
 20
734.4970321560832
 30
0.0
  0
SPLINE
  5
15A
330
1F
100
AcDbEntity
  8
1
  6
Continuous
 62
    30
370
    18
100
AcDbSpline
210
0.0
220
0.0
230
1.0
 70
     8
 71
     3
 72
    42
 73
    38
 74
     0
 42
0.000000001
 43
0.0000000001
 40
0.0
 40
0.0
 40
0.0
 40
0.0
 40
0.1081753506233367
 40
0.1081753506233367
 40
0.162263025935005
 40
0.162263025935005
 40
0.1893068635908389
 40
0.1893068635908389
 40
0.2163507012466729
 40
0.2163507012466729
 40
0.3245260518700095
 40
0.3245260518700095
 40
0.378613727181678
 40
0.378613727181678
 40
0.4056575648375027
 40
0.4056575648375027
 40
0.4327014024933275
 40
0.4327014024933275
 40
0.5408767531166461
 40
0.5408767531166461
 40
0.5679205907724638
 40
0.5679205907724638
 40
0.5949644284282816
 40
0.5949644284282816
 40
0.6490521037399148
 40
0.6490521037399148
 40
0.7572274543631791
 40
0.7572274543631791
 40
0.784271292018996
 40
0.784271292018996
 40
0.8113151296748132
 40
0.8113151296748132
 40
0.8654028049864576
 40
0.8654028049864576
 40
0.9735781556097495
 40
0.9735781556097495
 40
1.0
 40
1.0
 40
1.0
 40
1.0
 10
700.2129615507752
 20
746.3910496564158
 30
0.0
 10
700.2129615507752
 20
746.5189563270483
 30
0.0
 10
700.2155669519949
 20
746.6465590984051
 30
0.0
 10
700.2228075022762
 20
746.8375410325651
 30
0.0
 10
700.2257773740939
 20
746.9011309217228
 30
0.0
 10
700.2309990386573
 20
746.9964105652997
 30
0.0
 10
700.232867410369
 20
747.0281528931082
 30
0.0
 10
700.2368484183993
 20
747.0916023292366
 30
0.0
 10
700.2389548468923
 20
747.1232026962805
 30
0.0
 10
700.2499457690554
 20
747.2795520723878
 30
0.0
 10
700.260265253148
 20
747.4004008034817
 30
0.0
 10
700.2770640197399
 20
747.5755493492222
 30
0.0
 10
700.2828845152408
 20
747.6329047143159
 30
0.0
 10
700.2918264031048
 20
747.7173625944497
 30
0.0
 10
700.2948419807362
 20
747.7452468842596
 30
0.0
 10
700.3008589946853
 20
747.7999137181744
 30
0.0
 10
700.3038682173188
 20
747.8267706927918
 30
0.0
 10
700.318864166604
 20
747.9587148921725
 30
0.0
 10
700.3306991462445
 20
748.0568420697819
 30
0.0
 10
700.3444640187519
 20
748.1702435326993
 30
0.0
 10
700.3471655514165
 20
748.192457075931
 30
0.0
 10
700.3524445716308
 20
748.2359354237118
 30
0.0
 10
700.355028118903
 20
748.2572507801406
 30
0.0
 10
700.3624923994379
 20
748.3191776916309
 30
0.0
 10
700.3671005393167
 20
748.3578885495463
 30
0.0
 10
700.3796569287064
 20
748.4665117874495
 30
0.0
 10
700.3863376777732
 20
748.5289801251638
 30
0.0
 10
700.39205192981
 20
748.5943311625307
 30
0.0
 10
700.3930642788639
 20
748.6067780078491
 30
0.0
 10
700.3948057331144
 20
748.6302756565649
 30
0.0
 10
700.3955311792157
 20
748.6412732869957
 30
0.0
 10
700.3972723902752
 20
748.6720565132773
 30
0.0
 10
700.3978529421286
 20
748.689637185049
 30
0.0
 10
700.3978626436644
 20
748.7337242310327
 30
0.0
 10
700.3955582007809
 20
748.7516524509209
 30
0.0
 10
700.3898669469569
 20
748.7591241102292
 30
0.0
 10
700.388620704505
 20
748.7598635215471
 30
0.0
 10
700.3872557699873
 20
748.75988655074
 30
0.0
  0
SPLINE
  5
15B
330
1F
100
AcDbEntity
  8
1
  6
Continuous
 62
    30
370
    18
100
AcDbSpline
210
0.0
220
0.0
230
1.0
 70
     8
 71
     3
 72
    30
 73
    26
 74
     0
 42
0.000000001
 43
0.0000000001
 40
0.0
 40
0.0
 40
0.0
 40
0.0
 40
0.0190389071085436
 40
0.0190389071085436
 40
0.063628047694514
 40
0.063628047694514
 40
0.1082171882804841
 40
0.1082171882804841
 40
0.2865737506243527
 40
0.2865737506243527
 40
0.375752031796289
 40
0.375752031796289
 40
0.4203411723822661
 40
0.4203411723822661
 40
0.4649303129682428
 40
0.4649303129682428
 40
0.6432868753121466
 40
0.6432868753121466
 40
0.6878760158981281
 40
0.6878760158981281
 40
0.7324651564841095
 40
0.7324651564841095
 40
0.8216434376560732
 40
0.8216434376560732
 40
1.0
 40
1.0
 40
1.0
 40
1.0
 10
700.3607485238172
 20
748.713518153672
 30
0.0
 10
700.3597250421867
 20
748.710643670395
 30
0.0
 10
700.3586847704873
 20
748.7076347275295
 30
0.0
 10
700.3551539713233
 20
748.6971279710691
 30
0.0
 10
700.3525907465629
 20
748.6890238772435
 30
0.0
 10
700.347301758307
 20
748.6713064077726
 30
0.0
 10
700.3445833853292
 20
748.6617153098196
 30
0.0
 10
700.3307699828365
 20
748.6104809971621
 30
0.0
 10
700.3189239708055
 20
748.5588000456257
 30
0.0
 10
700.3009691730873
 20
748.4655529177442
 30
0.0
 10
700.2949528596241
 20
748.4318322205759
 30
0.0
 10
700.2860115543208
 20
748.3771713395106
 30
0.0
 10
700.283043406569
 20
748.3582536549948
 30
0.0
 10
700.2772185221678
 20
748.3194450673528
 30
0.0
 10
700.2743539800654
 20
748.2995082051106
 30
0.0
 10
700.2603195149575
 20
748.1971997495214
 30
0.0
 10
700.2500127355795
 20
748.1070243212339
 30
0.0
 10
700.2390568564381
 20
747.9838112668117
 30
0.0
 10
700.2369622357182
 20
747.9586396686607
 30
0.0
 10
700.2329867305409
 20
747.9072186745798
 30
0.0
 10
700.2311015392711
 20
747.8809002525813
 30
0.0
 10
700.2258374557535
 20
747.8008941891472
 30
0.0
 10
700.2228480326136
 20
747.7461863629912
 30
0.0
 10
700.2155677077802
 20
747.5780389735735
 30
0.0
 10
700.2129615507752
 20
747.4606107521721
 30
0.0
 10
700.2129615507752
 20
747.3376611943846
 30
0.0
  0
SPLINE
  5
15C
330
1F
100
AcDbEntity
  8
1
  6
Continuous
 62
    30
370
    18
100
AcDbSpline
210
0.0
220
0.0
230
1.0
 70
     8
 71
     3
 72
   111
 73
   107
 74
     0
 42
0.000000001
 43
0.0000000001
 40
0.0
 40
0.0
 40
0.0
 40
0.0
 40
0.0312499999999611
 40
0.0312499999999611
 40
0.0624999999999221
 40
0.0624999999999221
 40
0.0703124999999122
 40
0.0703124999999122
 40
0.0781249999999023
 40
0.0781249999999023
 40
0.0937499999998831
 40
0.0937499999998831
 40
0.1249999999998367
 40
0.1249999999998367
 40
0.1406249999998134
 40
0.1406249999998134
 40
0.1562499999997901
 40
0.1562499999997901
 40
0.1874999999997523
 40
0.2187499999997145
 40
0.2187499999997145
 40
0.2265624999997073
 40
0.2265624999997073
 40
0.2343749999997001
 40
0.2499999999996855
 40
0.2499999999996855
 40
0.281249999999665
 40
0.281249999999665
 40
0.2968749999996546
 40
0.2968749999996546
 40
0.3046874999996496
 40
0.3046874999996496
 40
0.3124999999996446
 40
0.3124999999996446
 40
0.3437499999996071
 40
0.3437499999996071
 40
0.3749999999995698
 40
0.3749999999995698
 40
0.3828124999995638
 40
0.3828124999995638
 40
0.3906249999995579
 40
0.406249999999552
 40
0.406249999999552
 40
0.4374999999995404
 40
0.4374999999995404
 40
0.453124999999535
 40
0.453124999999535
 40
0.4609374999995341
 40
0.4609374999995341
 40
0.4687499999995331
 40
0.4687499999995331
 40
0.4999999999995415
 40
0.4999999999995415
 40
0.5312499999995498
 40
0.5312499999995498
 40
0.546874999999554
 40
0.546874999999554
 40
0.5624999999995581
 40
0.5624999999995581
 40
0.5937499999995678
 40
0.5937499999995678
 40
0.6015624999995712
 40
0.6015624999995712
 40
0.6093749999995747
 40
0.6093749999995747
 40
0.624999999999579
 40
0.624999999999579
 40
0.6562499999995886
 40
0.6562499999995886
 40
0.6718749999995917
 40
0.6718749999995917
 40
0.6796874999995931
 40
0.6796874999995931
 40
0.6874999999995945
 40
0.6874999999995945
 40
0.718749999999611
 40
0.718749999999611
 40
0.7499999999996273
 40
0.7499999999996273
 40
0.7578124999996327
 40
0.7578124999996327
 40
0.7656249999996383
 40
0.7812499999996494
 40
0.7812499999996494
 40
0.8124999999996719
 40
0.8124999999996719
 40
0.8281249999996873
 40
0.8281249999996873
 40
0.8359374999996947
 40
0.8359374999996947
 40
0.8437499999997022
 40
0.8437499999997022
 40
0.8749999999997563
 40
0.8749999999997563
 40
0.9062499999998104
 40
0.9062499999998104
 40
0.914062499999824
 40
0.914062499999824
 40
0.9218749999998376
 40
0.9374999999998735
 40
0.9374999999998735
 40
0.9687499999999367
 40
0.9687499999999367
 40
0.9843749999999682
 40
0.9843749999999682
 40
1.0
 40
1.0
 40
1.0
 40
1.0
 10
700.2129615507752
 20
745.0477513667385
 30
0.0
 10
700.212961550775
 20
745.105689907561
 30
0.0
 10
700.2139475632246
 20
745.1683261942965
 30
0.0
 10
700.2183397755734
 20
745.3025940272101
 30
0.0
 10
700.2217444189441
 20
745.3742267458747
 30
0.0
 10
700.2278104758029
 20
745.4694718648497
 30
0.0
 10
700.2291143431088
 20
745.4888073826772
 30
0.0
 10
700.231911570589
 20
745.5280587190017
 30
0.0
 10
700.2334079568928
 20
745.5480105425055
 30
0.0
 10
700.2381578939713
 20
745.6083045101989
 30
0.0
 10
700.241677768162
 20
745.649177536794
 30
0.0
 10
700.2533191345474
 20
745.7737662713067
 30
0.0
 10
700.2625218581522
 20
745.8594422582489
 30
0.0
 10
700.2785821206451
 20
745.9918167229724
 30
0.0
 10
700.2843116738594
 20
746.0365873341126
 30
0.0
 10
700.2965405467825
 20
746.1274383067451
 30
0.0
 10
700.3030649130229
 20
746.173678878858
 30
0.0
 10
700.3235197078934
 20
746.3124324884368
 30
0.0
 10
700.3532405536239
 20
746.4983680170798
 30
0.0
 10
700.3874098046307
 20
746.6861379021291
 30
0.0
 10
700.4100120405978
 20
746.8041069734066
 30
0.0
 10
700.4146034742578
 20
746.8277755996165
 30
0.0
 10
700.4238523733754
 20
746.8748992267824
 30
0.0
 10
700.4378275368681
 20
746.945282691193
 30
0.0
 10
700.452077212647
 20
747.0147812353181
 30
0.0
 10
700.4808594955438
 20
747.1526382115246
 30
0.0
 10
700.5004265774161
 20
747.2430276426604
 30
0.0
 10
700.5299955080608
 20
747.3764034843159
 30
0.0
 10
700.5398878757791
 20
747.4204928061405
 30
0.0
 10
700.5547319807107
 20
747.4860694214728
 30
0.0
 10
700.5596866352313
 20
747.5078602026862
 30
0.0
 10
700.569517605721
 20
747.5509423458848
 30
0.0
 10
700.5744019143822
 20
747.572269241356
 30
0.0
 10
700.5986479178903
 20
747.6778499337926
 30
0.0
 10
700.6174857151386
 20
747.7589581338411
 30
0.0
 10
700.653502931452
 20
747.9146388657159
 30
0.0
 10
700.670684523874
 20
747.9892122009641
 30
0.0
 10
700.6907251913534
 20
748.0782028646971
 30
0.0
 10
700.6946681722561
 20
748.0958205356542
 30
0.0
 10
700.7023436799313
 20
748.1303767787379
 30
0.0
 10
700.7135545186928
 20
748.1812498280447
 30
0.0
 10
700.7238325751589
 20
748.2292791404222
 30
0.0
 10
700.7430697268404
 20
748.3215983714884
 30
0.0
 10
700.754139472309
 20
748.378177306914
 30
0.0
 10
700.7677549196287
 20
748.455464773095
 30
0.0
 10
700.7717943866286
 20
748.4799591988601
 30
0.0
 10
700.7770512389875
 20
748.5147377686916
 30
0.0
 10
700.7786723730218
 20
748.5260243398544
 30
0.0
 10
700.7816157866281
 20
748.5477642360477
 30
0.0
 10
700.7829405441098
 20
748.5582315201489
 30
0.0
 10
700.7888314797731
 20
748.6085818853006
 30
0.0
 10
700.7912025796394
 20
748.6425354888779
 30
0.0
 10
700.7912525427946
 20
748.6980124470796
 30
0.0
 10
700.7889316779485
 20
748.7195371361158
 30
0.0
 10
700.7818570065166
 20
748.7421197964848
 30
0.0
 10
700.7789248791773
 20
748.7479370075326
 30
0.0
 10
700.7719888960285
 20
748.7562302423744
 30
0.0
 10
700.7679832378523
 20
748.7587116900426
 30
0.0
 10
700.7544386732176
 20
748.7612517049389
 30
0.0
 10
700.7433749651893
 20
748.756429689563
 30
0.0
 10
700.7272379535324
 20
748.742197777634
 30
0.0
 10
700.7238949576418
 20
748.7389392883417
 30
0.0
 10
700.7169828006033
 20
748.731588849387
 30
0.0
 10
700.7134189601703
 20
748.7275013923294
 30
0.0
 10
700.7024815222464
 20
748.7140880001167
 30
0.0
 10
700.6948392162176
 20
748.7035886745452
 30
0.0
 10
700.6709856404789
 20
748.6675444985297
 30
0.0
 10
700.6538506790552
 20
748.637475611781
 30
0.0
 10
700.6267296033607
 20
748.5833874441688
 30
0.0
 10
700.6174519649021
 20
748.563854986128
 30
0.0
 10
700.603227430838
 20
748.5322593833115
 30
0.0
 10
700.5984263831886
 20
748.5213247101495
 30
0.0
 10
700.5887916213187
 20
748.4988254416261
 30
0.0
 10
700.5839536111406
 20
748.4872522676488
 30
0.0
 10
700.5596837692826
 20
748.4277905185976
 30
0.0
 10
700.5400158871253
 20
748.3751381610398
 30
0.0
 10
700.500711580112
 20
748.2598296795693
 30
0.0
 10
700.4810733493265
 20
748.1971742920955
 30
0.0
 10
700.4568447302876
 20
748.1123270162195
 30
0.0
 10
700.4520109697642
 20
748.0950136062224
 30
0.0
 10
700.4424541251248
 20
748.059985596225
 30
0.0
 10
700.428258699902
 20
748.0067521618387
 30
0.0
 10
700.4145061816052
 20
747.9514676199406
 30
0.0
 10
700.3876507657714
 20
747.8381883657962
 30
0.0
 10
700.3706134580129
 20
747.7590678824789
 30
0.0
 10
700.3465824890808
 20
747.6348553370156
 30
0.0
 10
700.3388262461419
 20
747.5925260964808
 30
0.0
 10
700.327601361674
 20
747.5275982175
 30
0.0
 10
700.3239218100629
 20
747.5056767303142
 30
0.0
 10
700.3167559803359
 20
747.4616704023621
 30
0.0
 10
700.3132648746043
 20
747.4395599639937
 30
0.0
 10
700.2962662520831
 20
747.3284772931739
 30
0.0
 10
700.2841288705091
 20
747.2379204615314
 30
0.0
 10
700.2627327381388
 20
747.0534634819161
 30
0.0
 10
700.2534742067828
 20
746.9595637238713
 30
0.0
 10
700.2436796341185
 20
746.8400134784326
 30
0.0
 10
700.2418073661748
 20
746.8159587179213
 30
0.0
 10
700.2382670403468
 20
746.7680065293521
 30
0.0
 10
700.2332523947505
 20
746.6961963733177
 30
0.0
 10
700.2290926061507
 20
746.6247364767808
 30
0.0
 10
700.2218316631568
 20
746.4822796351128
 30
0.0
 10
700.218401854519
 20
746.3879233122113
 30
0.0
 10
700.2150725730996
 20
746.2473378250976
 30
0.0
 10
700.214265625918
 20
746.2006347416974
 30
0.0
 10
700.2132084417008
 20
746.1075580704764
 30
0.0
 10
700.2129615507752
 20
746.0614590046979
 30
0.0
 10
700.2129615507752
 20
746.0158962667942
 30
0.0
  0
SPLINE
  5
15D
330
1F
100
AcDbEntity
  8
1
  6
Continuous
 62
    30
370
    18
100
AcDbSpline
210
0.0
220
0.0
230
1.0
 70
     8
 71
     3
 72
   115
 73
   111
 74
     0
 42
0.000000001
 43
0.0000000001
 40
0.0
 40
0.0
 40
0.0
 40
0.0
 40
0.0312499999999839
 40
0.0312499999999839
 40
0.0624999999999679
 40
0.0624999999999679
 40
0.0703124999999607
 40
0.0703124999999607
 40
0.0781249999999536
 40
0.0937499999999383
 40
0.0937499999999383
 40
0.1249999999999136
 40
0.1249999999999136
 40
0.1406249999999053
 40
0.1406249999999053
 40
0.1484374999999012
 40
0.1484374999999012
 40
0.156249999999897
 40
0.156249999999897
 40
0.1874999999998798
 40
0.1874999999998798
 40
0.2187499999998626
 40
0.2187499999998626
 40
0.2265624999998541
 40
0.2265624999998541
 40
0.2343749999998457
 40
0.2343749999998457
 40
0.249999999999829
 40
0.249999999999829
 40
0.2812499999998043
 40
0.2812499999998043
 40
0.296874999999792
 40
0.296874999999792
 40
0.3124999999997797
 40
0.3124999999997797
 40
0.3437499999997627
 40
0.3437499999997627
 40
0.3749999999997458
 40
0.3749999999997458
 40
0.3828124999997432
 40
0.3828124999997432
 40
0.3906249999997407
 40
0.4062499999997428
 40
0.4062499999997428
 40
0.4374999999997472
 40
0.4374999999997472
 40
0.44531249999975
 40
0.44531249999975
 40
0.4531249999997528
 40
0.4531249999997528
 40
0.468749999999764
 40
0.468749999999764
 40
0.4999999999997813
 40
0.4999999999997813
 40
0.5156249999997905
 40
0.5156249999997905
 40
0.5234374999997955
 40
0.5234374999997955
 40
0.5312499999998006
 40
0.5312499999998006
 40
0.5624999999998146
 40
0.5624999999998146
 40
0.5703124999998175
 40
0.5703124999998175
 40
0.5781249999998205
 40
0.5781249999998205
 40
0.5937499999998265
 40
0.5937499999998265
 40
0.6249999999998391
 40
0.6249999999998391
 40
0.640624999999845
 40
0.640624999999845
 40
0.6484374999998487
 40
0.6484374999998487
 40
0.6562499999998523
 40
0.6562499999998523
 40
0.6874999999998637
 40
0.6874999999998637
 40
0.718749999999875
 40
0.718749999999875
 40
0.7343749999998782
 40
0.7343749999998782
 40
0.7499999999998813
 40
0.7499999999998813
 40
0.781249999999888
 40
0.781249999999888
 40
0.7890624999998865
 40
0.7890624999998865
 40
0.796874999999885
 40
0.796874999999885
 40
0.8124999999998834
 40
0.8124999999998834
 40
0.8437499999998886
 40
0.8437499999998886
 40
0.8593749999998915
 40
0.8593749999998915
 40
0.8671874999998928
 40
0.8671874999998928
 40
0.874999999999894
 40
0.874999999999894
 40
0.9062499999999225
 40
0.9062499999999225
 40
0.937499999999951
 40
0.937499999999951
 40
0.9453124999999541
 40
0.9453124999999541
 40
0.9531249999999573
 40
0.9687499999999714
 40
0.9687499999999714
 40
1.0
 40
1.0
 40
1.0
 40
1.0
 10
701.212961550775
 20
748.4811643474317
 30
0.0
 10
701.1774135630601
 20
748.4341105240167
 30
0.0
 10
701.1413025869387
 20
748.3820241264065
 30
0.0
 10
701.0685009785819
 20
748.2679517177527
 30
0.0
 10
701.0318083798353
 20
748.2059657668559
 30
0.0
 10
700.9858351567391
 20
748.1220165239463
 30
0.0
 10
700.9766529795305
 20
748.1049338218348
 30
0.0
 10
700.9584037339794
 20
748.0703434465483
 30
0.0
 10
700.9311643387922
 20
748.0177507062498
 30
0.0
 10
700.9043474141845
 20
747.9630530449492
 30
0.0
 10
700.8513228398305
 20
747.8508591759095
 30
0.0
 10
700.8167863676122
 20
747.772344479936
 30
0.0
 10
700.7663631014669
 20
747.648799459053
 30
0.0
 10
700.7497853322816
 20
747.6066525429344
 30
0.0
 10
700.7252821279059
 20
747.5419295640019
 30
0.0
 10
700.7171622593776
 20
747.5200695535331
 30
0.0
 10
700.7011068928638
 20
747.4760021938952
 30
0.0
 10
700.6931892773865
 20
747.4538454166968
 30
0.0
 10
700.6541454699203
 20
747.3424516796471
 30
0.0
 10
700.6246505424147
 20
747.2513919912576
 30
0.0
 10
700.569012736984
 20
747.0654153044359
 30
0.0
 10
700.5428702754307
 20
746.9704987877263
 30
0.0
 10
700.5122274688213
 20
746.8493519730027
 30
0.0
 10
700.506200732854
 20
746.8249970846801
 30
0.0
 10
700.4943496349766
 20
746.776031999497
 30
0.0
 10
700.488529403676
 20
746.7514359523719
 30
0.0
 10
700.4715153915085
 20
746.6779056540296
 30
0.0
 10
700.4607163458222
 20
746.6290180562025
 30
0.0
 10
700.4298397925548
 20
746.4827657028939
 30
0.0
 10
700.4112798322161
 20
746.385808667537
 30
0.0
 10
700.3861044516225
 20
746.2412871405473
 30
0.0
 10
700.3781575866122
 20
746.1932662866755
 30
0.0
 10
700.3631001686206
 20
746.0975556959897
 30
0.0
 10
700.3559681898579
 20
746.049699082101
 30
0.0
 10
700.3360588665676
 20
745.9089276294459
 30
0.0
 10
700.324659511543
 20
745.8182247614573
 30
0.0
 10
700.30484642084
 20
745.6430755035118
 30
0.0
 10
700.2964346612979
 20
745.5586279421439
 30
0.0
 10
700.2874328904426
 20
745.4571960030938
 30
0.0
 10
700.2857091877937
 20
745.4371204794065
 30
0.0
 10
700.282432644519
 20
745.3977226967181
 30
0.0
 10
700.2777626374773
 20
745.3396264366883
 30
0.0
 10
700.2737714808599
 20
745.2844905092546
 30
0.0
 10
700.2665733972281
 20
745.1781157161307
 30
0.0
 10
700.2628126568487
 20
745.1123749969548
 30
0.0
 10
700.2591334635567
 20
745.0368072023203
 30
0.0
 10
700.2584493251644
 20
745.0220256585897
 30
0.0
 10
700.2571799926418
 20
744.9931367543928
 30
0.0
 10
700.2565941717849
 20
744.9790104639012
 30
0.0
 10
700.2549916828532
 20
744.9379810650142
 30
0.0
 10
700.2541245318484
 20
744.9123251985485
 30
0.0
 10
700.2520638092626
 20
744.8403258183592
 30
0.0
 10
700.2514020433889
 20
744.798925074492
 30
0.0
 10
700.2513980559103
 20
744.7467120754961
 30
0.0
 10
700.2515637550006
 20
744.7309621302771
 30
0.0
 10
700.2520737905182
 20
744.7098775735236
 30
0.0
 10
700.2522880592501
 20
744.7032623682051
 30
0.0
 10
700.2528047893775
 20
744.6909591079644
 30
0.0
 10
700.253106999528
 20
744.6852699473807
 30
0.0
 10
700.2548421242327
 20
744.6591110041702
 30
0.0
 10
700.2569360160475
 20
744.6454655931032
 30
0.0
 10
700.2606252706103
 20
744.6374732672707
 30
0.0
 10
700.2614174276841
 20
744.6363302797586
 30
0.0
 10
700.2631180464863
 20
744.6349634447442
 30
0.0
 10
700.2640285605645
 20
744.6347408692452
 30
0.0
 10
700.266928256156
 20
744.6354603811395
 30
0.0
 10
700.2690879648037
 20
744.6377781616302
 30
0.0
 10
700.2763246038779
 20
744.6500925004594
 30
0.0
 10
700.2821515823773
 20
744.6654236161604
 30
0.0
 10
700.2928340527234
 20
744.6990007845397
 30
0.0
 10
700.2967203220023
 20
744.7119632793713
 30
0.0
 10
700.3031111838683
 20
744.7341110811411
 30
0.0
 10
700.3053375992857
 20
744.7419534000161
 30
0.0
 10
700.3099815360805
 20
744.758516679974
 30
0.0
 10
700.3123893815497
 20
744.7672027995736
 30
0.0
 10
700.3248777319028
 20
744.8126172344587
 30
0.0
 10
700.3363001069932
 20
744.8552671880097
 30
0.0
 10
700.3625973595539
 20
744.9527210028223
 30
0.0
 10
700.3774700167684
 20
745.0075256665999
 30
0.0
 10
700.4029367481721
 20
745.0990328919152
 30
0.0
 10
700.4118688113113
 20
745.1307840757289
 30
0.0
 10
700.4306025380195
 20
745.1964726470277
 30
0.0
 10
700.440413598225
 20
745.230444092484
 30
0.0
 10
700.4712468012118
 20
745.335641643291
 30
0.0
 10
700.4936660104639
 20
745.4101354700738
 30
0.0
 10
700.5242811615369
 20
745.508623307011
 30
0.0
 10
700.5305339795806
 20
745.5285906373537
 30
0.0
 10
700.5433067558782
 20
745.5690677641894
 30
0.0
 10
700.5498220969209
 20
745.5895621903743
 30
0.0
 10
700.5696233426701
 20
745.6513804525907
 30
0.0
 10
700.5832121776864
 20
745.6931904145283
 30
0.0
 10
700.6251473226104
 20
745.8203368047784
 30
0.0
 10
700.6546616220487
 20
745.9073806152161
 30
0.0
 10
700.7012983761275
 20
746.0412387503026
 30
0.0
 10
700.7172383314153
 20
746.0864092027205
 30
0.0
 10
700.7417450434649
 20
746.1549965227293
 30
0.0
 10
700.7500280764348
 20
746.1780380250148
 30
0.0
 10
700.7666965490334
 20
746.2241321873544
 30
0.0
 10
700.7750856473601
 20
746.2471956617591
 30
0.0
 10
700.8172970089194
 20
746.3625945878483
 30
0.0
 10
700.8519181300522
 20
746.4551715152589
 30
0.0
 10
700.9226308210561
 20
746.6408825315439
 30
0.0
 10
700.9587233394608
 20
746.7340162837613
 30
0.0
 10
701.0045841584488
 20
746.8508601692755
 30
0.0
 10
701.013803584051
 20
746.8742760545854
 30
0.0
 10
701.032189291928
 20
746.9208450044337
 30
0.0
 10
701.059728025631
 20
746.9904064471338
 30
0.0
 10
701.0871208465359
 20
747.0591156290677
 30
0.0
 10
701.1416315580756
 20
747.1954463122561
 30
0.0
 10
701.1776106377572
 20
747.2848875549423
 30
0.0
 10
701.2129615507666
 20
747.3729566638087
 30
0.0
  0
SPLINE
  5
15E
330
1F
100
AcDbEntity
  8
1
  6
Continuous
 62
    30
370
    18
100
AcDbSpline
210
0.0
220
0.0
230
1.0
 70
     8
 71
     3
 72
   115
 73
   111
 74
     0
 42
0.000000001
 43
0.0000000001
 40
0.0
 40
0.0
 40
0.0
 40
0.0
 40
0.0312500000000012
 40
0.0312500000000012
 40
0.0625000000000023
 40
0.0625000000000023
 40
0.0703124999999993
 40
0.0703124999999993
 40
0.0781249999999963
 40
0.0937499999999913
 40
0.0937499999999913
 40
0.1249999999999807
 40
0.1249999999999807
 40
0.1406249999999716
 40
0.1406249999999716
 40
0.1484374999999709
 40
0.1484374999999709
 40
0.1562499999999702
 40
0.1562499999999702
 40
0.1874999999999749
 40
0.1874999999999749
 40
0.2187499999999796
 40
0.2187499999999796
 40
0.2265624999999786
 40
0.2265624999999786
 40
0.2343749999999777
 40
0.2343749999999777
 40
0.2499999999999758
 40
0.2499999999999758
 40
0.2812499999999806
 40
0.2812499999999806
 40
0.2968749999999831
 40
0.2968749999999831
 40
0.3124999999999855
 40
0.3124999999999855
 40
0.3437499999999903
 40
0.3437499999999903
 40
0.3749999999999952
 40
0.3749999999999952
 40
0.382812499999998
 40
0.382812499999998
 40
0.3906250000000007
 40
0.4062499999999997
 40
0.4062499999999997
 40
0.4374999999999969
 40
0.4374999999999969
 40
0.4453124999999974
 40
0.4453124999999974
 40
0.453124999999998
 40
0.453124999999998
 40
0.4687499999999946
 40
0.4687499999999946
 40
0.4999999999999876
 40
0.4999999999999876
 40
0.5156249999999821
 40
0.5156249999999821
 40
0.5234374999999777
 40
0.5234374999999777
 40
0.5312499999999732
 40
0.5312499999999732
 40
0.5624999999999571
 40
0.5624999999999571
 40
0.5703124999999538
 40
0.5703124999999538
 40
0.5781249999999504
 40
0.5781249999999504
 40
0.5937499999999448
 40
0.5937499999999448
 40
0.6249999999999324
 40
0.6249999999999324
 40
0.6406249999999263
 40
0.6406249999999263
 40
0.6484374999999244
 40
0.6484374999999244
 40
0.6562499999999226
 40
0.6562499999999226
 40
0.6874999999999223
 40
0.6874999999999223
 40
0.7187499999999221
 40
0.7187499999999221
 40
0.734374999999922
 40
0.734374999999922
 40
0.7499999999999218
 40
0.7499999999999218
 40
0.7812499999999223
 40
0.7812499999999223
 40
0.789062499999921
 40
0.789062499999921
 40
0.7968749999999195
 40
0.7968749999999195
 40
0.8124999999999231
 40
0.8124999999999231
 40
0.8437499999999365
 40
0.8437499999999365
 40
0.8593749999999428
 40
0.8593749999999428
 40
0.8671874999999499
 40
0.8671874999999499
 40
0.874999999999957
 40
0.874999999999957
 40
0.9062499999999615
 40
0.9062499999999615
 40
0.937499999999966
 40
0.937499999999966
 40
0.9453124999999675
 40
0.9453124999999675
 40
0.9531249999999688
 40
0.9687499999999791
 40
0.9687499999999791
 40
1.0
 40
1.0
 40
1.0
 40
1.0
 10
443.2544556238538
 20
288.3965002267596
 30
0.0
 10
443.1733914374406
 20
288.3609522390445
 30
0.0
 10
443.0963159972028
 20
288.324841262923
 30
0.0
 10
442.9497561179587
 20
288.2520396545661
 30
0.0
 10
442.8802725857088
 20
288.2153470558193
 30
0.0
 10
442.7982457360476
 20
288.169373832723
 30
0.0
 10
442.7821160654708
 20
288.1601916555144
 30
0.0
 10
442.7505514080616
 20
288.1419424099633
 30
0.0
 10
442.7041787796808
 20
288.114703014776
 30
0.0
 10
442.6606914154541
 20
288.0878860901683
 30
0.0
 10
442.5775207459191
 20
288.0348615158141
 30
0.0
 10
442.5271261336472
 20
288.0003250435957
 30
0.0
 10
442.4592976969327
 20
287.9499017774504
 30
0.0
 10
442.4379869390729
 20
287.9333240082651
 30
0.0
 10
442.4080388908887
 20
287.9088208038892
 30
0.0
 10
442.3983783270763
 20
287.900700935361
 30
0.0
 10
442.3798159737908
 20
287.8846455688471
 30
0.0
 10
442.3709339080808
 20
287.8767279533699
 30
0.0
 10
442.3285022225829
 20
287.8376841459036
 30
0.0
 10
442.3008603810704
 20
287.808189218398
 30
0.0
 10
442.2582111988241
 20
287.7525514129672
 30
0.0
 10
442.2432011764601
 20
287.7264089514139
 30
0.0
 10
442.232813934583
 20
287.6957661448045
 30
0.0
 10
442.2311572345874
 20
287.6897394088372
 30
0.0
 10
442.2287058562133
 20
287.6778883109598
 30
0.0
 10
442.227914285366
 20
287.6720680796593
 30
0.0
 10
442.2268610899008
 20
287.6550540674918
 30
0.0
 10
442.2279069112496
 20
287.6442550218055
 30
0.0
 10
442.2362253283952
 20
287.6133784685381
 30
0.0
 10
442.2486545088922
 20
287.5948185081995
 30
0.0
 10
442.2778143425768
 20
287.569643127606
 30
0.0
 10
442.2892929484088
 20
287.5616962625957
 30
0.0
 10
442.3158771819836
 20
287.546638844604
 30
0.0
 10
442.3310535830534
 20
287.5395068658414
 30
0.0
 10
442.381404141104
 20
287.5195975425511
 30
0.0
 10
442.4214811413186
 20
287.5081981875267
 30
0.0
 10
442.5144187909247
 20
287.4883850968237
 30
0.0
 10
442.5672776204738
 20
287.4799733372816
 30
0.0
 10
442.6416814110588
 20
287.4709715664265
 30
0.0
 10
442.6569813952281
 20
287.4692478637776
 30
0.0
 10
442.6881620219997
 20
287.4659713205028
 30
0.0
 10
442.7358977290634
 20
287.4613013134612
 30
0.0
 10
442.7864854772858
 20
287.4573101568438
 30
0.0
 10
442.8914087340822
 20
287.4501120732122
 30
0.0
 10
442.9663348691848
 20
287.4463513328329
 30
0.0
 10
443.0663284930616
 20
287.4426721395409
 30
0.0
 10
443.0866455817374
 20
287.4419880011486
 30
0.0
 10
443.1279258502578
 20
287.440718668626
 30
0.0
 10
443.1489211323421
 20
287.4401328477691
 30
0.0
 10
443.2123848056146
 20
287.4385303588375
 30
0.0
 10
443.2554642407545
 20
287.4376632078328
 30
0.0
 10
443.3869573280679
 20
287.435602485247
 30
0.0
 10
443.4776141668329
 20
287.4349407193734
 30
0.0
 10
443.6180864135539
 20
287.4349367318948
 30
0.0
 10
443.6656612289039
 20
287.4351024309851
 30
0.0
 10
443.7381762615982
 20
287.4356124665028
 30
0.0
 10
443.7625855660821
 20
287.4358267352347
 30
0.0
 10
443.8115320024133
 20
287.4363434653621
 30
0.0
 10
443.8360644272251
 20
287.4366456755126
 30
0.0
 10
443.9590191569943
 20
287.4383808002174
 30
0.0
 10
444.0583148205498
 20
287.4404746920323
 30
0.0
 10
444.1835900432085
 20
287.4441639465953
 30
0.0
 10
444.2087031474184
 20
287.4449561036691
 30
0.0
 10
444.2590463664355
 20
287.4466567224712
 30
0.0
 10
444.2843273334228
 20
287.4475672365495
 30
0.0
 10
444.3598481107662
 20
287.4504669321411
 30
0.0
 10
444.4098733216599
 20
287.4526266407888
 30
0.0
 10
444.5590037581994
 20
287.4598632798632
 30
0.0
 10
444.6571686858057
 20
287.4656902583627
 30
0.0
 10
444.8025222887915
 20
287.476372728709
 30
0.0
 10
444.8506566260924
 20
287.4802589979881
 30
0.0
 10
444.9223700053482
 20
287.4866498598541
 30
0.0
 10
444.9462175044321
 20
287.4888762752716
 30
0.0
 10
444.9936403880324
 20
287.4935202120665
 30
0.0
 10
445.0171190574466
 20
287.4959280575357
 30
0.0
 10
445.1333665900331
 20
287.5084164078891
 30
0.0
 10
445.2227150757165
 20
287.5198387829797
 30
0.0
 10
445.394288232067
 20
287.5461360355408
 30
0.0
 10
445.4765127956653
 20
287.5610086927555
 30
0.0
 10
445.5943219079551
 20
287.5864754241596
 30
0.0
 10
445.6322653719807
 20
287.5954074872989
 30
0.0
 10
445.7053287594657
 20
287.6141412140074
 30
0.0
 10
445.740492266826
 20
287.623952274213
 30
0.0
 10
445.8419632002398
 20
287.6547854772002
 30
0.0
 10
445.9042688256944
 20
287.6772046864527
 30
0.0
 10
445.9754784844184
 20
287.7078198375261
 30
0.0
 10
445.9893853807966
 20
287.7140726555699
 30
0.0
 10
446.0165234636499
 20
287.7268454318677
 30
0.0
 10
446.0297419707178
 20
287.7333607729104
 30
0.0
 10
446.0680891076245
 20
287.7531620186597
 30
0.0
 10
446.0920144636742
 20
287.7667508536761
 30
0.0
 10
446.1590415424349
 20
287.8086859986006
 30
0.0
 10
446.1974152748637
 20
287.8382002980391
 30
0.0
 10
446.2457725165215
 20
287.8848370521184
 30
0.0
 10
446.2603523337906
 20
287.9007770074064
 30
0.0
 10
446.2798978764624
 20
287.9252837194562
 30
0.0
 10
446.2860346919074
 20
287.9335667524261
 30
0.0
 10
446.2974621668871
 20
287.9502352250248
 30
0.0
 10
446.3027576582309
 20
287.9586243233516
 30
0.0
 10
446.3271844787266
 20
288.0008356849111
 30
0.0
 10
446.3401944510214
 20
288.0354568060442
 30
0.0
 10
446.3536784906476
 20
288.1061694970484
 30
0.0
 10
446.3541523068063
 20
288.1422620154533
 30
0.0
 10
446.3467669848616
 20
288.1881228344415
 30
0.0
 10
446.3448854736782
 20
288.1973422600437
 30
0.0
 10
446.3403443429688
 20
288.2157279679208
 30
0.0
 10
446.3323609418398
 20
288.2432667016238
 30
0.0
 10
446.3209123911255
 20
288.2706595225287
 30
0.0
 10
446.2934581186324
 20
288.3251702340685
 30
0.0
 10
446.2691035123779
 20
288.3611493137502
 30
0.0
 10
446.2385722968932
 20
288.3965002267596
 30
0.0
  0
SPLINE
  5
15F
330
1F
100
AcDbEntity
  8
1
  6
Continuous
 62
    30
370
    18
100
AcDbSpline
210
0.0
220
0.0
230
1.0
 70
     8
 71
     3
 72
    69
 73
    65
 74
     0
 42
0.000000001
 43
0.0000000001
 40
0.0
 40
0.0
 40
0.0
 40
0.0
 40
0.0131279917909612
 40
0.0131279917909612
 40
0.0460237253979282
 40
0.0460237253979282
 40
0.0624715922014116
 40
0.0624715922014116
 40
0.078919459004895
 40
0.078919459004895
 40
0.144710926218829
 40
0.144710926218829
 40
0.1776066598257959
 40
0.1776066598257959
 40
0.1940545266292727
 40
0.1940545266292727
 40
0.2105023934327496
 40
0.2105023934327496
 40
0.2762938606466683
 40
0.2762938606466683
 40
0.29274172745015
 40
0.29274172745015
 40
0.3091895942536316
 40
0.3091895942536316
 40
0.3420853278605962
 40
0.3420853278605962
 40
0.4078767950745238
 40
0.4078767950745238
 40
0.4243246618780063
 40
0.4243246618780063
 40
0.4407725286814888
 40
0.4407725286814888
 40
0.4736682622884567
 40
0.4736682622884567
 40
0.5394597295023907
 40
0.5394597295023907
 40
0.5559075963058726
 40
0.5559075963058726
 40
0.5723554631093545
 40
0.5723554631093545
 40
0.60525119671632
 40
0.6381469303232854
 40
0.6381469303232854
 40
0.6545947971267697
 40
0.6545947971267697
 40
0.671042663930254
 40
0.671042663930254
 40
0.7368341311441863
 40
0.7368341311441863
 40
0.7697298647511531
 40
0.7697298647511531
 40
0.7861777315546413
 40
0.7861777315546413
 40
0.8026255983581294
 40
0.8026255983581294
 40
0.8684170655720805
 40
0.8684170655720805
 40
0.8848649323755704
 40
0.8848649323755704
 40
0.9013127991790603
 40
0.9013127991790603
 40
0.9342085327860401
 40
0.9342085327860401
 40
1.0
 40
1.0
 40
1.0
 40
1.0
 10
435.6273598258117
 20
287.4013115293809
 30
0.0
 10
435.6273527371791
 20
287.4020947509521
 30
0.0
 10
435.626875602277
 20
287.4029694779884
 30
0.0
 10
435.6235700696172
 20
287.4063461782607
 30
0.0
 10
435.6182630844417
 20
287.4093160500785
 30
0.0
 10
435.6058115420681
 20
287.4145377146418
 30
0.0
 10
435.6009113063933
 20
287.4164060863534
 30
0.0
 10
435.5895835550462
 20
287.4203870943837
 30
0.0
 10
435.583171690192
 20
287.4224935228768
 30
0.0
 10
435.5476384000852
 20
287.4334844450399
 30
0.0
 10
435.508011561307
 20
287.4438039291325
 30
0.0
 10
435.4321452890126
 20
287.4606026957244
 30
0.0
 10
435.4041007150978
 20
287.4664231912252
 30
0.0
 10
435.3577786881443
 20
287.4753650790893
 30
0.0
 10
435.3416246179062
 20
287.4783806567207
 30
0.0
 10
435.3082297964446
 20
287.4843976706698
 30
0.0
 10
435.2909496287966
 20
287.4874068933033
 30
0.0
 10
435.2016781317314
 20
287.5024028425885
 30
0.0
 10
435.1211504625235
 20
287.5142378222289
 30
0.0
 10
435.0090184124801
 20
287.5280026947364
 30
0.0
 10
434.986013640243
 20
287.530704227401
 30
0.0
 10
434.9388256993441
 20
287.5359832476154
 30
0.0
 10
434.9145790135213
 20
287.5385667948874
 30
0.0
 10
434.8407163787236
 20
287.5460310754224
 30
0.0
 10
434.789881018343
 20
287.5506392153011
 30
0.0
 10
434.6327125162955
 20
287.5631956046908
 30
0.0
 10
434.5217568004568
 20
287.5698763537578
 30
0.0
 10
434.3751234794461
 20
287.5755906057945
 30
0.0
 10
434.3453485515552
 20
287.5766029548483
 30
0.0
 10
434.2851924556481
 20
287.5783444090989
 30
0.0
 10
434.254954500418
 20
287.5790698552001
 30
0.0
 10
434.1637702948765
 20
287.5808110662598
 30
0.0
 10
434.1023547182238
 20
287.5813916181131
 30
0.0
 10
433.9162658470062
 20
287.5814013196489
 30
0.0
 10
433.7897668336468
 20
287.5790968767653
 30
0.0
 10
433.6284702262745
 20
287.5733793228276
 30
0.0
 10
433.5962427653964
 20
287.5721006337147
 30
0.0
 10
433.532053876883
 20
287.569295073348
 30
0.0
 10
433.500059212768
 20
287.5677670294324
 30
0.0
 10
433.4043690227572
 20
287.5628289626891
 30
0.0
 10
433.2775644071542
 20
287.5553011907867
 30
0.0
 10
433.1522947787952
 20
287.5461155671999
 30
0.0
 10
433.0589211837517
 20
287.5386926473078
 30
0.0
 10
433.0278932358999
 20
287.5361294225474
 30
0.0
 10
432.9660328520476
 20
287.5308404342915
 30
0.0
 10
432.9352910192748
 20
287.5281220613137
 30
0.0
 10
432.7835778595949
 20
287.514308658821
 30
0.0
 10
432.6675119903081
 20
287.50246264679
 30
0.0
 10
432.5011136933472
 20
287.4845078490718
 30
0.0
 10
432.4469395401002
 20
287.4784915356086
 30
0.0
 10
432.3676626976445
 20
287.4695502303053
 30
0.0
 10
432.3415546575775
 20
287.4665820825535
 30
0.0
 10
432.2905435272704
 20
287.4607571981522
 30
0.0
 10
432.2655708637614
 20
287.4578926560499
 30
0.0
 10
432.1433275109694
 20
287.443858190942
 30
0.0
 10
432.0538475646068
 20
287.4335514115641
 30
0.0
 10
431.9523883067624
 20
287.4225955324226
 30
0.0
 10
431.9326203140042
 20
287.4205009117027
 30
0.0
 10
431.8941497813319
 20
287.4165254065254
 30
0.0
 10
431.8754019060931
 20
287.4146402152555
 30
0.0
 10
431.8211977453117
 20
287.409376131738
 30
0.0
 10
431.7877711646179
 20
287.406386708598
 30
0.0
 10
431.69543633054
 20
287.3991063837647
 30
0.0
 10
431.6444026054741
 20
287.3965002267596
 30
0.0
 10
431.6042509246261
 20
287.3965002267596
 30
0.0
  0
SPLINE
  5
160
330
1F
100
AcDbEntity
  8
1
  6
Continuous
 62
    30
370
    18
100
AcDbSpline
210
0.0
220
0.0
230
1.0
 70
     8
 71
     3
 72
   111
 73
   107
 74
     0
 42
0.000000001
 43
0.0000000001
 40
0.0
 40
0.0
 40
0.0
 40
0.0
 40
0.031249999999941
 40
0.031249999999941
 40
0.0624999999998821
 40
0.0624999999998821
 40
0.0703124999998677
 40
0.0703124999998677
 40
0.0781249999998532
 40
0.0781249999998532
 40
0.0937499999998238
 40
0.0937499999998238
 40
0.124999999999757
 40
0.124999999999757
 40
0.1406249999997238
 40
0.1406249999997238
 40
0.1562499999996905
 40
0.1562499999996905
 40
0.1874999999996328
 40
0.2187499999995752
 40
0.2187499999995752
 40
0.2265624999995628
 40
0.2265624999995628
 40
0.2343749999995504
 40
0.2499999999995259
 40
0.2499999999995259
 40
0.2812499999994858
 40
0.2812499999994858
 40
0.2968749999994656
 40
0.2968749999994656
 40
0.3046874999994557
 40
0.3046874999994557
 40
0.3124999999994457
 40
0.3124999999994457
 40
0.3437499999994204
 40
0.3437499999994204
 40
0.3749999999993951
 40
0.3749999999993951
 40
0.3828124999993924
 40
0.3828124999993924
 40
0.3906249999993897
 40
0.4062499999993904
 40
0.4062499999993904
 40
0.4374999999993918
 40
0.4374999999993918
 40
0.453124999999393
 40
0.453124999999393
 40
0.4609374999993953
 40
0.4609374999993953
 40
0.4687499999993976
 40
0.4687499999993976
 40
0.4999999999994191
 40
0.4999999999994191
 40
0.5312499999994407
 40
0.5312499999994407
 40
0.5468749999994513
 40
0.5468749999994513
 40
0.5624999999994621
 40
0.5624999999994621
 40
0.5937499999994825
 40
0.5937499999994825
 40
0.6015624999994875
 40
0.6015624999994875
 40
0.6093749999994925
 40
0.6093749999994925
 40
0.6249999999995022
 40
0.6249999999995022
 40
0.6562499999995204
 40
0.6562499999995204
 40
0.6718749999995278
 40
0.6718749999995278
 40
0.6796874999995315
 40
0.6796874999995315
 40
0.6874999999995351
 40
0.6874999999995351
 40
0.7187499999995575
 40
0.7187499999995575
 40
0.7499999999995798
 40
0.7499999999995798
 40
0.7578124999995866
 40
0.7578124999995866
 40
0.7656249999995933
 40
0.7812499999996072
 40
0.7812499999996072
 40
0.8124999999996351
 40
0.8124999999996351
 40
0.828124999999653
 40
0.828124999999653
 40
0.8359374999996618
 40
0.8359374999996618
 40
0.8437499999996707
 40
0.8437499999996707
 40
0.8749999999997312
 40
0.8749999999997312
 40
0.9062499999997918
 40
0.9062499999997918
 40
0.914062499999807
 40
0.914062499999807
 40
0.9218749999998221
 40
0.9374999999998613
 40
0.9374999999998613
 40
0.9687499999999307
 40
0.9687499999999307
 40
0.9843749999999654
 40
0.9843749999999654
 40
1.0
 40
1.0
 40
1.0
 40
1.0
 10
440.1653372169675
 20
287.3965002267596
 30
0.0
 10
440.242541259481
 20
287.3965002267596
 30
0.0
 10
440.3147725548663
 20
287.3974862392091
 30
0.0
 10
440.4496907435812
 20
287.4018784515579
 30
0.0
 10
440.5123764722377
 20
287.4052830949286
 30
0.0
 10
440.5846694960962
 20
287.4113491517874
 30
0.0
 10
440.598823541257
 20
287.4126530190933
 30
0.0
 10
440.6265144898153
 20
287.4154502465734
 30
0.0
 10
440.640073680005
 20
287.4169466328773
 30
0.0
 10
440.6795254256331
 20
287.4216965699559
 30
0.0
 10
440.7042667148932
 20
287.4252164441465
 30
0.0
 10
440.7739396470627
 20
287.4368578105318
 30
0.0
 10
440.814340904182
 20
287.4460605341367
 30
0.0
 10
440.8659904065017
 20
287.4621207966296
 30
0.0
 10
440.8817096431616
 20
287.467850349844
 30
0.0
 10
440.910109797687
 20
287.480079222767
 30
0.0
 10
440.9228206137454
 20
287.4866035890074
 30
0.0
 10
440.9558381658231
 20
287.5070583838779
 30
0.0
 10
440.9866330710447
 20
287.5367792296084
 30
0.0
 10
440.9919826172328
 20
287.5709484806152
 30
0.0
 10
440.9872241796372
 20
287.5935507165824
 30
0.0
 10
440.9858616705693
 20
287.5981421502422
 30
0.0
 10
440.9823344019467
 20
287.6073910493599
 30
0.0
 10
440.9758443164717
 20
287.6213662128526
 30
0.0
 10
440.9658183800422
 20
287.6356158886316
 30
0.0
 10
440.9411465305025
 20
287.6643981715283
 30
0.0
 10
440.918561257795
 20
287.6839652534006
 30
0.0
 10
440.8754343925647
 20
287.7135341840452
 30
0.0
 10
440.8595116696753
 20
287.7234265517636
 30
0.0
 10
440.8332480379778
 20
287.7382706566952
 30
0.0
 10
440.82408408969
 20
287.7432253112158
 30
0.0
 10
440.8050907264889
 20
287.7530562817054
 30
0.0
 10
440.7952481267358
 20
287.7579405903667
 30
0.0
 10
440.7443252035725
 20
287.7821865938748
 30
0.0
 10
440.6981407111825
 20
287.8010243911231
 30
0.0
 10
440.5949622438259
 20
287.8370416074364
 30
0.0
 10
440.5379703042519
 20
287.8542231998586
 30
0.0
 10
440.4596103043332
 20
287.8742638673379
 30
0.0
 10
440.4435491299603
 20
287.8782068482406
 30
0.0
 10
440.4109322682889
 20
287.8858823559158
 30
0.0
 10
440.3612202510968
 20
287.8970931946774
 30
0.0
 10
440.3091752011382
 20
287.9073712511434
 30
0.0
 10
440.2020033048092
 20
287.926608402825
 30
0.0
 10
440.1264612233134
 20
287.9376781482936
 30
0.0
 10
440.0068527043369
 20
287.9512935956133
 30
0.0
 10
439.9659303158015
 20
287.9553330626131
 30
0.0
 10
439.9029122759739
 20
287.960589914972
 30
0.0
 10
439.8815894786039
 20
287.9622110490063
 30
0.0
 10
439.8387178991954
 20
287.9651544626125
 30
0.0
 10
439.817147585831
 20
287.9664792200943
 30
0.0
 10
439.7086324364143
 20
287.9723701557576
 30
0.0
 10
439.6197063736316
 20
287.9747412556239
 30
0.0
 10
439.4377000864827
 20
287.9747912187792
 30
0.0
 10
439.3446203059736
 20
287.972470353933
 30
0.0
 10
439.201758088344
 20
287.9653956825011
 30
0.0
 10
439.1541289934563
 20
287.9624635551618
 30
0.0
 10
439.0590626795799
 20
287.9555275720129
 30
0.0
 10
439.0115900945697
 20
287.9515219138368
 30
0.0
 10
438.8693450783851
 20
287.937977349202
 30
0.0
 10
438.7747450156794
 20
287.9269136411738
 30
0.0
 10
438.6567588182634
 20
287.9107766295169
 30
0.0
 10
438.633174802579
 20
287.9074336336263
 30
0.0
 10
438.5860327453509
 20
287.9005214765878
 30
0.0
 10
438.5625138799506
 20
287.8969576361548
 30
0.0
 10
438.4925168776605
 20
287.886020198231
 30
0.0
 10
438.4464386325098
 20
287.8783778922021
 30
0.0
 10
438.3098976484165
 20
287.8545243164634
 30
0.0
 10
438.2211206979869
 20
287.8373893550396
 30
0.0
 10
438.0912244119953
 20
287.8102682793452
 30
0.0
 10
438.0484725346102
 20
287.8009906408865
 30
0.0
 10
437.9851700990107
 20
287.7867661068225
 30
0.0
 10
437.9641725874327
 20
287.7819650591731
 30
0.0
 10
437.9227212650244
 20
287.7723302973031
 30
0.0
 10
437.9022470432853
 20
287.7674922871252
 30
0.0
 10
437.8011103938692
 20
287.7432224452671
 30
0.0
 10
437.7241323309247
 20
287.7235545631098
 30
0.0
 10
437.5777744841963
 20
287.6842502560965
 30
0.0
 10
437.5083946157772
 20
287.664612025311
 30
0.0
 10
437.4265494968161
 20
287.6403834062721
 30
0.0
 10
437.4104133674352
 20
287.6355496457487
 30
0.0
 10
437.3788727384732
 20
287.6259928011092
 30
0.0
 10
437.3325704253361
 20
287.6117973758865
 30
0.0
 10
437.2892508349067
 20
287.5980448575897
 30
0.0
 10
437.2065312245139
 20
287.5711894417559
 30
0.0
 10
437.1565916608237
 20
287.5541521339974
 30
0.0
 10
437.0896160438108
 20
287.5301211650653
 30
0.0
 10
437.0686178696253
 20
287.5223649221265
 30
0.0
 10
437.0391725356731
 20
287.5111400376585
 30
0.0
 10
437.0296845380623
 20
287.5074604860474
 30
0.0
 10
437.0115375603466
 20
287.5002946563204
 30
0.0
 10
437.0028653223226
 20
287.4968035505888
 30
0.0
 10
436.9614868860578
 20
287.4798049280676
 30
0.0
 10
436.9347007278166
 20
287.4676675464935
 30
0.0
 10
436.8936251153652
 20
287.4462714141233
 30
0.0
 10
436.8793339249115
 20
287.4370128827673
 30
0.0
 10
436.8696492260212
 20
287.4272183101031
 30
0.0
 10
436.8681229246789
 20
287.4253460421593
 30
0.0
 10
436.8659213050179
 20
287.4218057163313
 30
0.0
 10
436.8638828258755
 20
287.416791070735
 30
0.0
 10
436.8655828580993
 20
287.4126312821352
 30
0.0
 10
436.8738947788681
 20
287.4053703391413
 30
0.0
 10
436.8859620723595
 20
287.4019405305035
 30
0.0
 10
436.9139850568479
 20
287.3986112490841
 30
0.0
 10
436.9249854251795
 20
287.3978043019025
 30
0.0
 10
436.9504006844111
 20
287.3967471176853
 30
0.0
 10
436.9647431942963
 20
287.3965002267596
 30
0.0
 10
436.9806939119456
 20
287.3965002267596
 30
0.0
  0
SPLINE
  5
161
330
1F
100
AcDbEntity
  8
1
  6
Continuous
 62
    30
370
    18
100
AcDbSpline
210
0.0
220
0.0
230
1.0
 70
     8
 71
     3
 72
    69
 73
    65
 74
     0
 42
0.000000001
 43
0.0000000001
 40
0.0
 40
0.0
 40
0.0
 40
0.0
 40
0.0131279980269032
 40
0.0131279980269032
 40
0.0460237314260182
 40
0.0460237314260182
 40
0.0624715981255756
 40
0.0624715981255756
 40
0.0789194648251329
 40
0.0789194648251329
 40
0.1447109316233629
 40
0.1447109316233629
 40
0.177606665022478
 40
0.177606665022478
 40
0.1940545317220298
 40
0.1940545317220298
 40
0.2105023984215816
 40
0.2105023984215816
 40
0.2762938652198006
 40
0.2762938652198006
 40
0.292741731919348
 40
0.292741731919348
 40
0.3091895986188956
 40
0.3091895986188956
 40
0.3420853320179893
 40
0.3420853320179893
 40
0.4078767988161752
 40
0.4078767988161752
 40
0.4243246655157223
 40
0.4243246655157223
 40
0.4407725322152695
 40
0.4407725322152695
 40
0.4736682656143699
 40
0.4736682656143699
 40
0.5394597324125727
 40
0.5394597324125727
 40
0.5559075991121216
 40
0.5559075991121216
 40
0.5723554658116706
 40
0.5723554658116706
 40
0.6052511992107669
 40
0.638146932609863
 40
0.638146932609863
 40
0.6545947993094128
 40
0.6545947993094128
 40
0.6710426660089626
 40
0.6710426660089626
 40
0.7368341328071573
 40
0.7368341328071573
 40
0.7697298662062554
 40
0.7697298662062554
 40
0.7861777329058077
 40
0.7861777329058077
 40
0.80262559960536
 40
0.80262559960536
 40
0.8684170664035676
 40
0.8684170664035676
 40
0.8848649331031216
 40
0.8848649331031216
 40
0.9013127998026756
 40
0.9013127998026756
 40
0.9342085332017838
 40
0.9342085332017838
 40
1.0
 40
1.0
 40
1.0
 40
1.0
 10
393.8273435443917
 20
325.3916889252693
 30
0.0
 10
393.8273506325751
 20
325.3909057034093
 30
0.0
 10
393.8278277674826
 20
325.3900309759944
 30
0.0
 10
393.8311333005962
 20
325.3866542752585
 30
0.0
 10
393.8364402857717
 20
325.3836844034408
 30
0.0
 10
393.8488918281453
 20
325.3784627388775
 30
0.0
 10
393.8537920638201
 20
325.3765943671658
 30
0.0
 10
393.8651198151672
 20
325.3726133591355
 30
0.0
 10
393.8715316800214
 20
325.3705069306425
 30
0.0
 10
393.9070649701282
 20
325.3595160084793
 30
0.0
 10
393.9466918089064
 20
325.3491965243868
 30
0.0
 10
394.0225580812007
 20
325.3323977577948
 30
0.0
 10
394.0506026551156
 20
325.3265772622941
 30
0.0
 10
394.0969246820691
 20
325.31763537443
 30
0.0
 10
394.1130787523072
 20
325.3146197967985
 30
0.0
 10
394.1464735737688
 20
325.3086027828494
 30
0.0
 10
394.1637537414167
 20
325.3055935602159
 30
0.0
 10
394.253025238482
 20
325.2905976109307
 30
0.0
 10
394.3335529076899
 20
325.2787626312903
 30
0.0
 10
394.4456849577333
 20
325.2649977587829
 30
0.0
 10
394.4686897299704
 20
325.2622962261182
 30
0.0
 10
394.5158776708693
 20
325.2570172059039
 30
0.0
 10
394.5401243566921
 20
325.2544336586319
 30
0.0
 10
394.6139869914898
 20
325.2469693780968
 30
0.0
 10
394.6648223518704
 20
325.2423612382182
 30
0.0
 10
394.8219908539179
 20
325.2298048488285
 30
0.0
 10
394.9329465697566
 20
325.2231240997615
 30
0.0
 10
395.0795798907673
 20
325.2174098477248
 30
0.0
 10
395.1093548186582
 20
325.2163974986709
 30
0.0
 10
395.1695109145652
 20
325.2146560444204
 30
0.0
 10
395.1997488697954
 20
325.2139305983191
 30
0.0
 10
395.2909330753369
 20
325.2121893872595
 30
0.0
 10
395.3523486519896
 20
325.2116088354061
 30
0.0
 10
395.5384375232071
 20
325.2115991338703
 30
0.0
 10
395.6649365365666
 20
325.2139035767539
 30
0.0
 10
395.8262331439389
 20
325.2196211306917
 30
0.0
 10
395.858460604817
 20
325.2208998198046
 30
0.0
 10
395.9226494933304
 20
325.2237053801713
 30
0.0
 10
395.9546441574454
 20
325.2252334240868
 30
0.0
 10
396.0503343474561
 20
325.2301714908302
 30
0.0
 10
396.1771389633892
 20
325.2376994259662
 30
0.0
 10
396.3024085914182
 20
325.2468848863193
 30
0.0
 10
396.3957821864616
 20
325.2543078062115
 30
0.0
 10
396.4268101343135
 20
325.2568710309719
 30
0.0
 10
396.4886705181657
 20
325.2621600192278
 30
0.0
 10
396.5194123509386
 20
325.2648783922056
 30
0.0
 10
396.6711255106185
 20
325.2786917946983
 30
0.0
 10
396.7871913799052
 20
325.2905378067292
 30
0.0
 10
396.9535896768662
 20
325.3084926044475
 30
0.0
 10
397.0077638301132
 20
325.3145089179106
 30
0.0
 10
397.0870406725688
 20
325.3234502232139
 30
0.0
 10
397.1131487126358
 20
325.3264183709657
 30
0.0
 10
397.164159842943
 20
325.332243255367
 30
0.0
 10
397.189132506452
 20
325.3351077974694
 30
0.0
 10
397.3113758592439
 20
325.3491422625773
 30
0.0
 10
397.4008558056066
 20
325.3594490419552
 30
0.0
 10
397.502315063451
 20
325.3704049210967
 30
0.0
 10
397.5220830562092
 20
325.3724995418166
 30
0.0
 10
397.5605535888815
 20
325.3764750469939
 30
0.0
 10
397.5793014641202
 20
325.3783602382637
 30
0.0
 10
397.6335056249017
 20
325.3836243217812
 30
0.0
 10
397.6669322055955
 20
325.3866137449212
 30
0.0
 10
397.7592670396734
 20
325.3938940697545
 30
0.0
 10
397.8103007647392
 20
325.3965002267597
 30
0.0
 10
397.8504524455873
 20
325.3965002267597
 30
0.0
  0
SPLINE
  5
162
330
1F
100
AcDbEntity
  8
1
  6
Continuous
 62
    30
370
    18
100
AcDbSpline
210
0.0
220
0.0
230
1.0
 70
     8
 71
     3
 72
   111
 73
   107
 74
     0
 42
0.000000001
 43
0.0000000001
 40
0.0
 40
0.0
 40
0.0
 40
0.0
 40
0.0312499999999611
 40
0.0312499999999611
 40
0.0624999999999221
 40
0.0624999999999221
 40
0.0703124999999122
 40
0.0703124999999122
 40
0.0781249999999023
 40
0.0781249999999023
 40
0.0937499999998831
 40
0.0937499999998831
 40
0.1249999999998367
 40
0.1249999999998367
 40
0.1406249999998134
 40
0.1406249999998134
 40
0.1562499999997901
 40
0.1562499999997901
 40
0.1874999999997523
 40
0.2187499999997145
 40
0.2187499999997145
 40
0.2265624999997073
 40
0.2265624999997073
 40
0.2343749999997001
 40
0.2499999999996855
 40
0.2499999999996855
 40
0.281249999999665
 40
0.281249999999665
 40
0.2968749999996546
 40
0.2968749999996546
 40
0.3046874999996496
 40
0.3046874999996496
 40
0.3124999999996446
 40
0.3124999999996446
 40
0.3437499999996071
 40
0.3437499999996071
 40
0.3749999999995698
 40
0.3749999999995698
 40
0.3828124999995638
 40
0.3828124999995638
 40
0.3906249999995579
 40
0.406249999999552
 40
0.406249999999552
 40
0.4374999999995404
 40
0.4374999999995404
 40
0.453124999999535
 40
0.453124999999535
 40
0.4609374999995341
 40
0.4609374999995341
 40
0.4687499999995331
 40
0.4687499999995331
 40
0.4999999999995415
 40
0.4999999999995415
 40
0.5312499999995498
 40
0.5312499999995498
 40
0.546874999999554
 40
0.546874999999554
 40
0.5624999999995581
 40
0.5624999999995581
 40
0.5937499999995678
 40
0.5937499999995678
 40
0.6015624999995712
 40
0.6015624999995712
 40
0.6093749999995747
 40
0.6093749999995747
 40
0.624999999999579
 40
0.624999999999579
 40
0.6562499999995886
 40
0.6562499999995886
 40
0.6718749999995917
 40
0.6718749999995917
 40
0.6796874999995931
 40
0.6796874999995931
 40
0.6874999999995945
 40
0.6874999999995945
 40
0.718749999999611
 40
0.718749999999611
 40
0.7499999999996273
 40
0.7499999999996273
 40
0.7578124999996327
 40
0.7578124999996327
 40
0.7656249999996383
 40
0.7812499999996494
 40
0.7812499999996494
 40
0.8124999999996719
 40
0.8124999999996719
 40
0.8281249999996873
 40
0.8281249999996873
 40
0.8359374999996947
 40
0.8359374999996947
 40
0.8437499999997022
 40
0.8437499999997022
 40
0.8749999999997563
 40
0.8749999999997563
 40
0.9062499999998104
 40
0.9062499999998104
 40
0.914062499999824
 40
0.914062499999824
 40
0.9218749999998376
 40
0.9374999999998735
 40
0.9374999999998735
 40
0.9687499999999367
 40
0.9687499999999367
 40
0.9843749999999682
 40
0.9843749999999682
 40
1.0
 40
1.0
 40
1.0
 40
1.0
 10
389.2893661532459
 20
325.3965002267597
 30
0.0
 10
389.2121621107324
 20
325.3965002267597
 30
0.0
 10
389.1399308153471
 20
325.3955142143102
 30
0.0
 10
389.0050126266322
 20
325.3911220019613
 30
0.0
 10
388.9423268979756
 20
325.3877173585907
 30
0.0
 10
388.8700338741172
 20
325.3816513017318
 30
0.0
 10
388.8558798289564
 20
325.3803474344259
 30
0.0
 10
388.8281888803981
 20
325.3775502069458
 30
0.0
 10
388.8146296902084
 20
325.3760538206419
 30
0.0
 10
388.7751779445803
 20
325.3713038835634
 30
0.0
 10
388.7504366553202
 20
325.3677840093727
 30
0.0
 10
388.6807637231507
 20
325.3561426429874
 30
0.0
 10
388.6403624660314
 20
325.3469399193825
 30
0.0
 10
388.5887129637117
 20
325.3308796568896
 30
0.0
 10
388.5729937270518
 20
325.3251501036753
 30
0.0
 10
388.5445935725263
 20
325.3129212307523
 30
0.0
 10
388.531882756468
 20
325.3063968645118
 30
0.0
 10
388.4988652043903
 20
325.2859420696414
 30
0.0
 10
388.4680702991687
 20
325.2562212239108
 30
0.0
 10
388.4627207529806
 20
325.2220519729041
 30
0.0
 10
388.4674791905762
 20
325.1994497369369
 30
0.0
 10
388.4688416996441
 20
325.194858303277
 30
0.0
 10
388.4723689682667
 20
325.1856094041594
 30
0.0
 10
388.4788590537417
 20
325.1716342406667
 30
0.0
 10
388.4888849901712
 20
325.1573845648876
 30
0.0
 10
388.5135568397109
 20
325.128602281991
 30
0.0
 10
388.5361421124184
 20
325.1090352001187
 30
0.0
 10
388.5792689776487
 20
325.079466269474
 30
0.0
 10
388.5951917005381
 20
325.0695739017557
 30
0.0
 10
388.6214553322356
 20
325.054729796824
 30
0.0
 10
388.6306192805234
 20
325.0497751423035
 30
0.0
 10
388.6496126437245
 20
325.0399441718138
 30
0.0
 10
388.6594552434776
 20
325.0350598631526
 30
0.0
 10
388.7103781666409
 20
325.0108138596445
 30
0.0
 10
388.7565626590309
 20
324.9919760623961
 30
0.0
 10
388.8597411263875
 20
324.9559588460829
 30
0.0
 10
388.9167330659615
 20
324.9387772536607
 30
0.0
 10
388.9950930658801
 20
324.9187365861814
 30
0.0
 10
389.0111542402531
 20
324.9147936052786
 30
0.0
 10
389.0437711019245
 20
324.9071180976034
 30
0.0
 10
389.0934831191165
 20
324.8959072588419
 30
0.0
 10
389.1455281690751
 20
324.8856292023759
 30
0.0
 10
389.2527000654042
 20
324.8663920506943
 30
0.0
 10
389.3282421469
 20
324.8553223052257
 30
0.0
 10
389.4478506658765
 20
324.841706857906
 30
0.0
 10
389.4887730544119
 20
324.8376673909062
 30
0.0
 10
389.5517910942394
 20
324.8324105385473
 30
0.0
 10
389.5731138916094
 20
324.830789404513
 30
0.0
 10
389.615985471018
 20
324.8278459909067
 30
0.0
 10
389.6375557843823
 20
324.826521233425
 30
0.0
 10
389.7460709337991
 20
324.8206302977617
 30
0.0
 10
389.8349969965818
 20
324.8182591978954
 30
0.0
 10
390.0170032837307
 20
324.8182092347402
 30
0.0
 10
390.1100830642398
 20
324.8205300995863
 30
0.0
 10
390.2529452818694
 20
324.8276047710182
 30
0.0
 10
390.3005743767571
 20
324.8305368983574
 30
0.0
 10
390.3956406906335
 20
324.8374728815064
 30
0.0
 10
390.4431132756437
 20
324.8414785396825
 30
0.0
 10
390.5853582918283
 20
324.8550231043172
 30
0.0
 10
390.6799583545339
 20
324.8660868123455
 30
0.0
 10
390.79794455195
 20
324.8822238240023
 30
0.0
 10
390.8215285676343
 20
324.8855668198929
 30
0.0
 10
390.8686706248625
 20
324.8924789769314
 30
0.0
 10
390.8921894902628
 20
324.8960428173644
 30
0.0
 10
390.9621864925529
 20
324.9069802552883
 30
0.0
 10
391.0082647377036
 20
324.9146225613171
 30
0.0
 10
391.1448057217968
 20
324.9384761370558
 30
0.0
 10
391.2335826722265
 20
324.9556110984796
 30
0.0
 10
391.3634789582181
 20
324.9827321741741
 30
0.0
 10
391.4062308356032
 20
324.9920098126327
 30
0.0
 10
391.4695332712027
 20
325.0062343466967
 30
0.0
 10
391.4905307827807
 20
325.0110353943462
 30
0.0
 10
391.5319821051889
 20
325.0206701562161
 30
0.0
 10
391.5524563269281
 20
325.0255081663941
 30
0.0
 10
391.6535929763442
 20
325.0497780082522
 30
0.0
 10
391.7305710392886
 20
325.0694458904094
 30
0.0
 10
391.8769288860171
 20
325.1087501974228
 30
0.0
 10
391.9463087544361
 20
325.1283884282083
 30
0.0
 10
392.0281538733973
 20
325.1526170472472
 30
0.0
 10
392.0442900027782
 20
325.1574508077705
 30
0.0
 10
392.0758306317401
 20
325.1670076524101
 30
0.0
 10
392.1221329448772
 20
325.1812030776327
 30
0.0
 10
392.1654525353067
 20
325.1949555959295
 30
0.0
 10
392.2481721456995
 20
325.2218110117634
 30
0.0
 10
392.2981117093897
 20
325.2388483195219
 30
0.0
 10
392.3650873264026
 20
325.2628792884539
 30
0.0
 10
392.3860855005881
 20
325.2706355313928
 30
0.0
 10
392.4155308345403
 20
325.2818604158608
 30
0.0
 10
392.4250188321511
 20
325.2855399674718
 30
0.0
 10
392.4431658098667
 20
325.2927057971989
 30
0.0
 10
392.4518380478907
 20
325.2961969029305
 30
0.0
 10
392.4932164841555
 20
325.3131955254516
 30
0.0
 10
392.5200026423968
 20
325.3253329070257
 30
0.0
 10
392.5610782548482
 20
325.3467290393959
 30
0.0
 10
392.5753694453019
 20
325.3559875707519
 30
0.0
 10
392.5850541441922
 20
325.3657821434162
 30
0.0
 10
392.5865804455345
 20
325.36765441136
 30
0.0
 10
392.5887820651955
 20
325.3711947371879
 30
0.0
 10
392.5908205443379
 20
325.3762093827843
 30
0.0
 10
392.5891205121141
 20
325.380369171384
 30
0.0
 10
392.5808085913453
 20
325.387630114378
 30
0.0
 10
392.5687412978539
 20
325.3910599230157
 30
0.0
 10
392.5407183133655
 20
325.3943892044351
 30
0.0
 10
392.5297179450339
 20
325.3951961516168
 30
0.0
 10
392.5043026858023
 20
325.396253335834
 30
0.0
 10
392.4899601759171
 20
325.3965002267597
 30
0.0
 10
392.4740094582678
 20
325.3965002267597
 30
0.0
  0
SPLINE
  5
163
330
1F
100
AcDbEntity
  8
1
  6
Continuous
 62
    30
370
    18
100
AcDbSpline
210
0.0
220
0.0
230
1.0
 70
     8
 71
     3
 72
   115
 73
   111
 74
     0
 42
0.000000001
 43
0.0000000001
 40
0.0
 40
0.0
 40
0.0
 40
0.0
 40
0.0312499999999839
 40
0.0312499999999839
 40
0.0624999999999679
 40
0.0624999999999679
 40
0.0703124999999607
 40
0.0703124999999607
 40
0.0781249999999536
 40
0.0937499999999383
 40
0.0937499999999383
 40
0.1249999999999136
 40
0.1249999999999136
 40
0.1406249999999053
 40
0.1406249999999053
 40
0.1484374999999012
 40
0.1484374999999012
 40
0.156249999999897
 40
0.156249999999897
 40
0.1874999999998798
 40
0.1874999999998798
 40
0.2187499999998626
 40
0.2187499999998626
 40
0.2265624999998541
 40
0.2265624999998541
 40
0.2343749999998457
 40
0.2343749999998457
 40
0.249999999999829
 40
0.249999999999829
 40
0.2812499999998043
 40
0.2812499999998043
 40
0.296874999999792
 40
0.296874999999792
 40
0.3124999999997797
 40
0.3124999999997797
 40
0.3437499999997627
 40
0.3437499999997627
 40
0.3749999999997458
 40
0.3749999999997458
 40
0.3828124999997432
 40
0.3828124999997432
 40
0.3906249999997407
 40
0.4062499999997428
 40
0.4062499999997428
 40
0.4374999999997472
 40
0.4374999999997472
 40
0.44531249999975
 40
0.44531249999975
 40
0.4531249999997528
 40
0.4531249999997528
 40
0.468749999999764
 40
0.468749999999764
 40
0.4999999999997813
 40
0.4999999999997813
 40
0.5156249999997905
 40
0.5156249999997905
 40
0.5234374999997955
 40
0.5234374999997955
 40
0.5312499999998006
 40
0.5312499999998006
 40
0.5624999999998146
 40
0.5624999999998146
 40
0.5703124999998175
 40
0.5703124999998175
 40
0.5781249999998205
 40
0.5781249999998205
 40
0.5937499999998265
 40
0.5937499999998265
 40
0.6249999999998391
 40
0.6249999999998391
 40
0.640624999999845
 40
0.640624999999845
 40
0.6484374999998487
 40
0.6484374999998487
 40
0.6562499999998523
 40
0.6562499999998523
 40
0.6874999999998637
 40
0.6874999999998637
 40
0.718749999999875
 40
0.718749999999875
 40
0.7343749999998782
 40
0.7343749999998782
 40
0.7499999999998813
 40
0.7499999999998813
 40
0.781249999999888
 40
0.781249999999888
 40
0.7890624999998865
 40
0.7890624999998865
 40
0.796874999999885
 40
0.796874999999885
 40
0.8124999999998834
 40
0.8124999999998834
 40
0.8437499999998886
 40
0.8437499999998886
 40
0.8593749999998915
 40
0.8593749999998915
 40
0.8671874999998928
 40
0.8671874999998928
 40
0.874999999999894
 40
0.874999999999894
 40
0.9062499999999225
 40
0.9062499999999225
 40
0.937499999999951
 40
0.937499999999951
 40
0.9453124999999541
 40
0.9453124999999541
 40
0.9531249999999573
 40
0.9687499999999714
 40
0.9687499999999714
 40
1.0
 40
1.0
 40
1.0
 40
1.0
 10
386.2002477463596
 20
324.3965002267597
 30
0.0
 10
386.2813119327726
 20
324.4320482144747
 30
0.0
 10
386.3583873730102
 20
324.4681591905961
 30
0.0
 10
386.504947252254
 20
324.5409607989528
 30
0.0
 10
386.5744307845036
 20
324.5776533976995
 30
0.0
 10
386.6564576341648
 20
324.6236266207957
 30
0.0
 10
386.6725873047415
 20
324.6328087980042
 30
0.0
 10
386.7041519621507
 20
324.6510580435553
 30
0.0
 10
386.7505245905315
 20
324.6782974387426
 30
0.0
 10
386.794011954758
 20
324.7051143633502
 30
0.0
 10
386.877182624293
 20
324.7581389377043
 30
0.0
 10
386.9275772365649
 20
324.7926754099227
 30
0.0
 10
386.9954056732793
 20
324.8430986760678
 30
0.0
 10
387.0167164311392
 20
324.8596764452531
 30
0.0
 10
387.0466644793233
 20
324.8841796496289
 30
0.0
 10
387.0563250431357
 20
324.8922995181571
 30
0.0
 10
387.0748873964213
 20
324.908354884671
 30
0.0
 10
387.0837694621314
 20
324.9162725001482
 30
0.0
 10
387.1262011476293
 20
324.9553163076145
 30
0.0
 10
387.1538429891418
 20
324.9848112351201
 30
0.0
 10
387.1964921713884
 20
325.0404490405508
 30
0.0
 10
387.2115021937526
 20
325.0665915021041
 30
0.0
 10
387.22188943563
 20
325.0972343087135
 30
0.0
 10
387.2235461356257
 20
325.1032610446807
 30
0.0
 10
387.2259975139999
 20
325.1151121425581
 30
0.0
 10
387.2267890848473
 20
325.1209323738587
 30
0.0
 10
387.2278422803126
 20
325.1379463860262
 30
0.0
 10
387.226796458964
 20
325.1487454317125
 30
0.0
 10
387.2184780418187
 20
325.1796219849799
 30
0.0
 10
387.2060488613221
 20
325.1981819453186
 30
0.0
 10
387.176889027638
 20
325.2233573259122
 30
0.0
 10
387.1654104218062
 20
325.2313041909225
 30
0.0
 10
387.1388261882319
 20
325.2463616089142
 30
0.0
 10
387.1236497871623
 20
325.2534935876769
 30
0.0
 10
387.0732992291123
 20
325.2734029109672
 30
0.0
 10
387.0332222288982
 20
325.2848022659917
 30
0.0
 10
386.940284579293
 20
325.3046153566948
 30
0.0
 10
386.8874257497444
 20
325.3130271162369
 30
0.0
 10
386.81302195916
 20
325.3220288870921
 30
0.0
 10
386.7977219749908
 20
325.323752589741
 30
0.0
 10
386.7665413482194
 20
325.3270291330159
 30
0.0
 10
386.7188056411561
 20
325.3316991400575
 30
0.0
 10
386.6682178929341
 20
325.3356902966749
 30
0.0
 10
386.5632946361384
 20
325.3428883803066
 30
0.0
 10
386.4883685010363
 20
325.346649120686
 30
0.0
 10
386.3883748771602
 20
325.3503283139781
 30
0.0
 10
386.3680577884846
 20
325.3510124523704
 30
0.0
 10
386.3267775199644
 20
325.352281784893
 30
0.0
 10
386.3057822378802
 20
325.35286760575
 30
0.0
 10
386.2423185646081
 20
325.3544700946816
 30
0.0
 10
386.1992391294684
 20
325.3553372456863
 30
0.0
 10
386.0677460421557
 20
325.3573979682722
 30
0.0
 10
385.9770892033911
 20
325.3580597341459
 30
0.0
 10
385.8366169566708
 20
325.3580637216245
 30
0.0
 10
385.7890421413211
 20
325.3578980225342
 30
0.0
 10
385.7165271086271
 20
325.3573879870165
 30
0.0
 10
385.6921178041434
 20
325.3571737182846
 30
0.0
 10
385.6431713678124
 20
325.3566569881573
 30
0.0
 10
385.6186389430006
 20
325.3563547780068
 30
0.0
 10
385.4956842132318
 20
325.3546196533021
 30
0.0
 10
385.3963885496767
 20
325.3525257614872
 30
0.0
 10
385.2711133270184
 20
325.3488365069244
 30
0.0
 10
385.2460002228085
 20
325.3480443498506
 30
0.0
 10
385.1956570037916
 20
325.3463437310485
 30
0.0
 10
385.1703760368043
 20
325.3454332169703
 30
0.0
 10
385.0948552594612
 20
325.3425335213788
 30
0.0
 10
385.0448300485675
 20
325.3403738127311
 30
0.0
 10
384.8956996120281
 20
325.3331371736569
 30
0.0
 10
384.7975346844219
 20
325.3273101951575
 30
0.0
 10
384.6521810814363
 20
325.3166277248114
 30
0.0
 10
384.6040467441355
 20
325.3127414555324
 30
0.0
 10
384.5323333648798
 20
325.3063505936665
 30
0.0
 10
384.5084858657959
 20
325.3041241782491
 30
0.0
 10
384.4610629821956
 20
325.2994802414542
 30
0.0
 10
384.4375843127813
 20
325.2970723959851
 30
0.0
 10
384.3213367801947
 20
325.284584045632
 30
0.0
 10
384.2319882945111
 20
325.2731616705415
 30
0.0
 10
384.0604151381602
 20
325.2468644179809
 30
0.0
 10
383.9781905745617
 20
325.2319917607664
 30
0.0
 10
383.8603814622715
 20
325.2065250293627
 30
0.0
 10
383.8224379982456
 20
325.1975929662235
 30
0.0
 10
383.7493746107602
 20
325.1788592395153
 30
0.0
 10
383.7142111033996
 20
325.1690481793098
 30
0.0
 10
383.6127401699852
 20
325.138214976323
 30
0.0
 10
383.5504345445301
 20
325.1157957670708
 30
0.0
 10
383.4792248858054
 20
325.0851806159978
 30
0.0
 10
383.465317989427
 20
325.0789277979541
 30
0.0
 10
383.4381799065735
 20
325.0661550216565
 30
0.0
 10
383.4249613995054
 20
325.0596396806138
 30
0.0
 10
383.3866142625982
 20
325.0398384348647
 30
0.0
 10
383.3626889065482
 20
325.0262495998484
 30
0.0
 10
383.2956618277864
 20
324.9843144549243
 30
0.0
 10
383.2572880953569
 20
324.9548001554861
 30
0.0
 10
383.208930853698
 20
324.9081634014073
 30
0.0
 10
383.1943510364284
 20
324.8922234461194
 30
0.0
 10
383.1748054937561
 20
324.8677167340699
 30
0.0
 10
383.168668678311
 20
324.8594337011
 30
0.0
 10
383.1572412033308
 20
324.8427652285013
 30
0.0
 10
383.1519457119868
 20
324.8343761301746
 30
0.0
 10
383.12751889149
 20
324.7921647686154
 30
0.0
 10
383.1145089191943
 20
324.7575436474825
 30
0.0
 10
383.1010248795664
 20
324.6868309564786
 30
0.0
 10
383.1005510634067
 20
324.650738438074
 30
0.0
 10
383.1079363853503
 20
324.6048776190859
 30
0.0
 10
383.1098178965334
 20
324.5956581934839
 30
0.0
 10
383.1143590272423
 20
324.5772724856067
 30
0.0
 10
383.1223424283706
 20
324.5497337519038
 30
0.0
 10
383.1337909790842
 20
324.5223409309989
 30
0.0
 10
383.1612452515758
 20
324.4678302194592
 30
0.0
 10
383.1855998578293
 20
324.4318511397775
 30
0.0
 10
383.2161310733129
 20
324.3965002267681
 30
0.0
  0
ENDSEC
  0
SECTION
  2
OBJECTS
  0
DICTIONARY
  5
C
330
0
100
AcDbDictionary
281
     1
  3
ACAD_DETAILVIEWSTYLE
350
1B8
  3
ACAD_GROUP
350
D
  3
ACAD_LAYOUT
350
1A
  3
ACAD_MATERIAL
350
43
  3
ACAD_MLEADERSTYLE
350
6B
  3
ACAD_MLINESTYLE
350
17
  3
ACAD_PLOTSETTINGS
350
19
  3
ACAD_PLOTSTYLENAME
350
E
  3
ACAD_SCALELIST
350
47
  3
ACAD_SECTIONVIEWSTYLE
350
1B9
  3
ACAD_TABLESTYLE
350
69
  3
ACAD_VISUALSTYLE
350
2A
  3
ACDB_RECOMPOSE_DATA
350
1B5
  3
AcDbVariableDictionary
350
175
  0
DICTIONARY
  5
173
330
8
100
AcDbDictionary
280
     1
281
     1
  3
ACAD_XREC_ROUNDTRIP
360
174
  0
DICTIONARY
  5
1B8
102
{ACAD_REACTORS
330
C
102
}
330
C
100
AcDbDictionary
281
     1
  0
DICTIONARY
  5
D
102
{ACAD_REACTORS
330
C
102
}
330
C
100
AcDbDictionary
281
     1
  0
DICTIONARY
  5
1A
102
{ACAD_REACTORS
330
C
102
}
330
C
100
AcDbDictionary
281
     1
  3
Layout1
350
1E
  3
Layout2
350
26
  3
Model
350
22
  0
DICTIONARY
  5
43
102
{ACAD_REACTORS
330
C
102
}
330
C
100
AcDbDictionary
281
     1
  3
ByBlock
350
45
  3
ByLayer
350
44
  3
Global
350
46
  0
DICTIONARY
  5
6B
102
{ACAD_REACTORS
330
C
102
}
330
C
100
AcDbDictionary
281
     1
  3
Standard
350
6C
  0
DICTIONARY
  5
17
102
{ACAD_REACTORS
330
C
102
}
330
C
100
AcDbDictionary
281
     1
  3
Standard
350
18
  0
DICTIONARY
  5
19
102
{ACAD_REACTORS
330
C
102
}
330
C
100
AcDbDictionary
281
     1
  0
ACDBDICTIONARYWDFLT
  5
E
102
{ACAD_REACTORS
330
C
102
}
330
C
100
AcDbDictionary
281
     1
  3
Normal
350
F
100
AcDbDictionaryWithDefault
340
F
  0
DICTIONARY
  5
47
102
{ACAD_REACTORS
330
C
102
}
330
C
100
AcDbDictionary
281
     1
  3
A0
350
48
  3
A1
350
49
  3
A2
350
4A
  3
A3
350
4B
  3
A4
350
4C
  3
A5
350
4D
  3
A6
350
4E
  3
A7
350
4F
  3
A8
350
50
  3
A9
350
51
  3
B0
350
52
  3
B1
350
53
  3
B2
350
54
  3
B3
350
55
  3
B4
350
56
  3
B5
350
57
  3
B6
350
58
  3
B7
350
59
  3
B8
350
5A
  3
B9
350
5B
  3
C0
350
5C
  3
C1
350
5D
  3
C2
350
5E
  3
C3
350
5F
  3
C4
350
60
  3
C5
350
61
  3
C6
350
62
  3
C7
350
63
  3
C8
350
64
  3
C9
350
65
  3
D0
350
66
  3
D1
350
67
  3
D2
350
68
  0
DICTIONARY
  5
1B9
102
{ACAD_REACTORS
330
C
102
}
330
C
100
AcDbDictionary
281
     1
  0
DICTIONARY
  5
69
102
{ACAD_REACTORS
330
C
102
}
330
C
100
AcDbDictionary
281
     1
  3
Standard
350
6A
  0
DICTIONARY
  5
2A
102
{ACAD_REACTORS
330
C
102
}
330
C
100
AcDbDictionary
281
     1
  3
2dWireframe
350
2F
  3
Basic
350
32
  3
Brighten
350
36
  3
ColorChange
350
3A
  3
Conceptual
350
34
  3
Dim
350
35
  3
EdgeColorOff
350
3D
  3
Facepattern
350
39
  3
Flat
350
2B
  3
FlatWithEdges
350
2C
  3
Gouraud
350
2D
  3
GouraudWithEdges
350
2E
  3
Hidden
350
31
  3
JitterOff
350
3B
  3
Linepattern
350
38
  3
OverhangOff
350
3C
  3
Realistic
350
33
  3
Shaded
350
42
  3
Shaded with edges
350
41
  3
Shades of Gray
350
3E
  3
Sketchy
350
3F
  3
Thicken
350
37
  3
Wireframe
350
30
  3
X-Ray
350
40
  0
XRECORD
  5
1B5
102
{ACAD_REACTORS
330
C
102
}
330
C
100
AcDbXrecord
280
     1
 90
        1
330
6A
  0
DICTIONARY
  5
175
102
{ACAD_REACTORS
330
C
102
}
330
C
100
AcDbDictionary
281
     1
  3
CANNOSCALE
350
176
  3
CMLEADERSTYLE
350
1B7
  3
CTABLESTYLE
350
1B6
  3
MSLTSCALE
350
177
  3
XCLIPFRAME
350
178
  0
XRECORD
  5
174
102
{ACAD_REACTORS
330
173
102
}
330
173
100
AcDbXrecord
280
     1
102
VTR_0.000_0.000_1.000_1.000_VISUALSTYLE
340
2F
102
VTR_0.000_0.000_1.000_1.000_GRIDDISPLAY
 70
     3
102
VTR_0.000_0.000_1.000_1.000_GRIDMAJOR
 70
     5
102
VTR_0.000_0.000_1.000_1.000_DEFAULTLIGHTING
280
     1
102
VTR_0.000_0.000_1.000_1.000_DEFAULTLIGHTINGTYPE
 70
     1
102
VTR_0.000_0.000_1.000_1.000_BRIGHTNESS
141
0.0
102
VTR_0.000_0.000_1.000_1.000_CONTRAST
142
0.0
102
VTR_0.000_0.000_0.500_1.000_VISUALSTYLE
340
2F
102
VTR_0.000_0.000_0.500_1.000_GRIDDISPLAY
 70
     3
102
VTR_0.000_0.000_0.500_1.000_GRIDMAJOR
 70
     5
102
VTR_0.000_0.000_0.500_1.000_DEFAULTLIGHTING
280
     1
102
VTR_0.000_0.000_0.500_1.000_DEFAULTLIGHTINGTYPE
 70
     1
102
VTR_0.000_0.000_0.500_1.000_BRIGHTNESS
141
0.0
102
VTR_0.000_0.000_0.500_1.000_CONTRAST
142
0.0
102
VTR_0.500_0.000_1.000_1.000_VISUALSTYLE
340
2F
102
VTR_0.500_0.000_1.000_1.000_GRIDDISPLAY
 70
     3
102
VTR_0.500_0.000_1.000_1.000_GRIDMAJOR
 70
     5
102
VTR_0.500_0.000_1.000_1.000_DEFAULTLIGHTING
280
     1
102
VTR_0.500_0.000_1.000_1.000_DEFAULTLIGHTINGTYPE
 70
     1
102
VTR_0.500_0.000_1.000_1.000_BRIGHTNESS
141
0.0
102
VTR_0.500_0.000_1.000_1.000_CONTRAST
142
0.0
102
VTR_0.000_0.500_1.000_1.000_VISUALSTYLE
340
2F
102
VTR_0.000_0.500_1.000_1.000_GRIDDISPLAY
 70
     3
102
VTR_0.000_0.500_1.000_1.000_GRIDMAJOR
 70
     5
102
VTR_0.000_0.500_1.000_1.000_DEFAULTLIGHTING
280
     1
102
VTR_0.000_0.500_1.000_1.000_DEFAULTLIGHTINGTYPE
 70
     1
102
VTR_0.000_0.500_1.000_1.000_BRIGHTNESS
141
0.0
102
VTR_0.000_0.500_1.000_1.000_CONTRAST
142
0.0
102
VTR_0.000_0.000_1.000_0.500_VISUALSTYLE
340
2F
102
VTR_0.000_0.000_1.000_0.500_GRIDDISPLAY
 70
     3
102
VTR_0.000_0.000_1.000_0.500_GRIDMAJOR
 70
     5
102
VTR_0.000_0.000_1.000_0.500_DEFAULTLIGHTING
280
     1
102
VTR_0.000_0.000_1.000_0.500_DEFAULTLIGHTINGTYPE
 70
     1
102
VTR_0.000_0.000_1.000_0.500_BRIGHTNESS
141
0.0
102
VTR_0.000_0.000_1.000_0.500_CONTRAST
142
0.0
102
VTR_0.000_0.500_0.500_1.000_VISUALSTYLE
340
2F
102
VTR_0.000_0.500_0.500_1.000_GRIDDISPLAY
 70
     3
102
VTR_0.000_0.500_0.500_1.000_GRIDMAJOR
 70
     5
102
VTR_0.000_0.500_0.500_1.000_DEFAULTLIGHTING
280
     1
102
VTR_0.000_0.500_0.500_1.000_DEFAULTLIGHTINGTYPE
 70
     1
102
VTR_0.000_0.500_0.500_1.000_BRIGHTNESS
141
0.0
102
VTR_0.000_0.500_0.500_1.000_CONTRAST
142
0.0
102
VTR_0.000_0.000_0.500_0.500_VISUALSTYLE
340
2F
102
VTR_0.000_0.000_0.500_0.500_GRIDDISPLAY
 70
     3
102
VTR_0.000_0.000_0.500_0.500_GRIDMAJOR
 70
     5
102
VTR_0.000_0.000_0.500_0.500_DEFAULTLIGHTING
280
     1
102
VTR_0.000_0.000_0.500_0.500_DEFAULTLIGHTINGTYPE
 70
     1
102
VTR_0.000_0.000_0.500_0.500_BRIGHTNESS
141
0.0
102
VTR_0.000_0.000_0.500_0.500_CONTRAST
142
0.0
102
VTR_0.500_0.000_1.000_0.500_VISUALSTYLE
340
2F
102
VTR_0.500_0.000_1.000_0.500_GRIDDISPLAY
 70
     3
102
VTR_0.500_0.000_1.000_0.500_GRIDMAJOR
 70
     5
102
VTR_0.500_0.000_1.000_0.500_DEFAULTLIGHTING
280
     1
102
VTR_0.500_0.000_1.000_0.500_DEFAULTLIGHTINGTYPE
 70
     1
102
VTR_0.500_0.000_1.000_0.500_BRIGHTNESS
141
0.0
102
VTR_0.500_0.000_1.000_0.500_CONTRAST
142
0.0
102
VTR_0.500_0.500_1.000_1.000_VISUALSTYLE
340
2F
102
VTR_0.500_0.500_1.000_1.000_GRIDDISPLAY
 70
     3
102
VTR_0.500_0.500_1.000_1.000_GRIDMAJOR
 70
     5
102
VTR_0.500_0.500_1.000_1.000_DEFAULTLIGHTING
280
     1
102
VTR_0.500_0.500_1.000_1.000_DEFAULTLIGHTINGTYPE
 70
     1
102
VTR_0.500_0.500_1.000_1.000_BRIGHTNESS
141
0.0
102
VTR_0.500_0.500_1.000_1.000_CONTRAST
142
0.0
102
VTR_0.000_0.500_0.333_1.000_VISUALSTYLE
340
2F
102
VTR_0.000_0.500_0.333_1.000_GRIDDISPLAY
 70
     3
102
VTR_0.000_0.500_0.333_1.000_GRIDMAJOR
 70
     5
102
VTR_0.000_0.500_0.333_1.000_DEFAULTLIGHTING
280
     1
102
VTR_0.000_0.500_0.333_1.000_DEFAULTLIGHTINGTYPE
 70
     1
102
VTR_0.000_0.500_0.333_1.000_BRIGHTNESS
141
0.0
102
VTR_0.000_0.500_0.333_1.000_CONTRAST
142
0.0
102
VTR_0.000_0.000_0.333_0.500_VISUALSTYLE
340
2F
102
VTR_0.000_0.000_0.333_0.500_GRIDDISPLAY
 70
     3
102
VTR_0.000_0.000_0.333_0.500_GRIDMAJOR
 70
     5
102
VTR_0.000_0.000_0.333_0.500_DEFAULTLIGHTING
280
     1
102
VTR_0.000_0.000_0.333_0.500_DEFAULTLIGHTINGTYPE
 70
     1
102
VTR_0.000_0.000_0.333_0.500_BRIGHTNESS
141
0.0
102
VTR_0.000_0.000_0.333_0.500_CONTRAST
142
0.0
102
VTR_0.333_0.500_0.667_1.000_VISUALSTYLE
340
2F
102
VTR_0.333_0.500_0.667_1.000_GRIDDISPLAY
 70
     3
102
VTR_0.333_0.500_0.667_1.000_GRIDMAJOR
 70
     5
102
VTR_0.333_0.500_0.667_1.000_DEFAULTLIGHTING
280
     1
102
VTR_0.333_0.500_0.667_1.000_DEFAULTLIGHTINGTYPE
 70
     1
102
VTR_0.333_0.500_0.667_1.000_BRIGHTNESS
141
0.0
102
VTR_0.333_0.500_0.667_1.000_CONTRAST
142
0.0
102
VTR_0.333_0.000_0.667_0.500_VISUALSTYLE
340
2F
102
VTR_0.333_0.000_0.667_0.500_GRIDDISPLAY
 70
     3
102
VTR_0.333_0.000_0.667_0.500_GRIDMAJOR
 70
     5
102
VTR_0.333_0.000_0.667_0.500_DEFAULTLIGHTING
280
     1
102
VTR_0.333_0.000_0.667_0.500_DEFAULTLIGHTINGTYPE
 70
     1
102
VTR_0.333_0.000_0.667_0.500_BRIGHTNESS
141
0.0
102
VTR_0.333_0.000_0.667_0.500_CONTRAST
142
0.0
102
VTR_0.667_0.500_1.000_1.000_VISUALSTYLE
340
2F
102
VTR_0.667_0.500_1.000_1.000_GRIDDISPLAY
 70
     3
102
VTR_0.667_0.500_1.000_1.000_GRIDMAJOR
 70
     5
102
VTR_0.667_0.500_1.000_1.000_DEFAULTLIGHTING
280
     1
102
VTR_0.667_0.500_1.000_1.000_DEFAULTLIGHTINGTYPE
 70
     1
102
VTR_0.667_0.500_1.000_1.000_BRIGHTNESS
141
0.0
102
VTR_0.667_0.500_1.000_1.000_CONTRAST
142
0.0
102
VTR_0.667_0.000_1.000_0.500_VISUALSTYLE
340
2F
102
VTR_0.667_0.000_1.000_0.500_GRIDDISPLAY
 70
     3
102
VTR_0.667_0.000_1.000_0.500_GRIDMAJOR
 70
     5
102
VTR_0.667_0.000_1.000_0.500_DEFAULTLIGHTING
280
     1
102
VTR_0.667_0.000_1.000_0.500_DEFAULTLIGHTINGTYPE
 70
     1
102
VTR_0.667_0.000_1.000_0.500_BRIGHTNESS
141
0.0
102
VTR_0.667_0.000_1.000_0.500_CONTRAST
142
0.0
  0
LAYOUT
  5
1E
102
{ACAD_REACTORS
330
1A
102
}
330
1A
100
AcDbPlotSettings
  1

  2
none_device
  4

  6

 40
0.0
 41
0.0
 42
0.0
 43
0.0
 44
0.0
 45
0.0
 46
0.0
 47
0.0
 48
0.0
 49
0.0
140
0.0
141
0.0
142
1.0
143
1.0
 70
   688
 72
     0
 73
     0
 74
     5
  7

 75
    16
 76
     0
 77
     2
 78
   300
147
1.0
148
0.0
149
0.0
100
AcDbLayout
  1
Layout1
 70
     1
 71
     1
 10
-0.5
 20
-0.5
 11
5.0
 21
5.0
 12
0.0
 22
0.0
 32
0.0
 14
-0.5
 24
-0.5
 34
-0.5
 15
5.0
 25
5.0
 35
5.0
146
0.0
 13
0.0
 23
0.0
 33
0.0
 16
1.0
 26
0.0
 36
0.0
 17
0.0
 27
1.0
 37
0.0
 76
     0
330
1B
  0
LAYOUT
  5
26
102
{ACAD_REACTORS
330
1A
102
}
330
1A
100
AcDbPlotSettings
  1

  2
none_device
  4

  6

 40
0.0
 41
0.0
 42
0.0
 43
0.0
 44
0.0
 45
0.0
 46
0.0
 47
0.0
 48
0.0
 49
0.0
140
0.0
141
0.0
142
1.0
143
1.0
 70
   688
 72
     0
 73
     0
 74
     5
  7

 75
    16
 76
     0
 77
     2
 78
   300
147
1.0
148
0.0
149
0.0
100
AcDbLayout
  1
Layout2
 70
     1
 71
     2
 10
0.0
 20
0.0
 11
0.0
 21
0.0
 12
0.0
 22
0.0
 32
0.0
 14
0.0
 24
0.0
 34
0.0
 15
0.0
 25
0.0
 35
0.0
146
0.0
 13
0.0
 23
0.0
 33
0.0
 16
1.0
 26
0.0
 36
0.0
 17
0.0
 27
1.0
 37
0.0
 76
     0
330
23
  0
LAYOUT
  5
22
102
{ACAD_REACTORS
330
1A
102
}
330
1A
100
AcDbPlotSettings
  1

  2
none_device
  4
Letter_(8.50_x_11.00_Inches)
  6

 40
6.35
 41
6.35
 42
6.350005
 43
6.350005
 44
215.9
 45
279.4
 46
0.0
 47
0.0
 48
0.0
 49
0.0
140
0.0
141
0.0
142
1.0
143
1.0
 70
  1712
 72
     0
 73
     0
 74
     0
  7

 75
     0
 76
     0
 77
     2
 78
   300
147
1.0
148
0.0
149
0.0
100
AcDbLayout
  1
Model
 70
     1
 71
     0
 10
-0.5
 20
-0.5
 11
5.0
 21
5.0
 12
0.0
 22
0.0
 32
0.0
 14
-0.5
 24
-0.5
 34
-0.5
 15
5.0
 25
5.0
 35
5.0
146
0.0
 13
0.0
 23
0.0
 33
0.0
 16
1.0
 26
0.0
 36
0.0
 17
0.0
 27
1.0
 37
0.0
 76
     0
330
1F
331
29
  0
MATERIAL
  5
45
102
{ACAD_REACTORS
330
43
102
}
102
{ACAD_XDICTIONARY
360
1AB
102
}
330
43
100
AcDbMaterial
  1
ByBlock
  0
MATERIAL
  5
44
102
{ACAD_REACTORS
330
43
102
}
102
{ACAD_XDICTIONARY
360
1A9
102
}
330
43
100
AcDbMaterial
  1
ByLayer
  0
MATERIAL
  5
46
102
{ACAD_REACTORS
330
43
102
}
102
{ACAD_XDICTIONARY
360
1AD
102
}
330
43
100
AcDbMaterial
  1
Global
  0
MLEADERSTYLE
  5
6C
102
{ACAD_REACTORS
330
6B
102
}
102
{ACAD_XDICTIONARY
360
1B3
102
}
330
6B
100
AcDbMLeaderStyle
170
     2
171
     1
172
     0
 90
        2
 40
0.0
 41
0.0
173
     1
 91
-1056964608
340
14
 92
       -2
290
     1
 42
0.09
291
     1
 43
0.36
  3
Standard
341
0
 44
0.18
300

342
11
174
     1
178
     6
175
     1
176
     0
 93
-1056964608
 45
0.18
292
     0
297
     0
 46
0.18
343
0
 94
-1056964608
 47
1.0
 49
1.0
140
1.0
293
     1
141
0.0
294
     1
177
     0
142
1.0
295
     0
296
     0
143
0.125
1001
ACAD_MLEADERVER
1070
     2
  0
MLINESTYLE
  5
18
102
{ACAD_REACTORS
330
17
102
}
330
17
100
AcDbMlineStyle
  2
Standard
 70
     0
  3

 62
   256
 51
90.0
 52
90.0
 71
     2
 49
0.5
 62
   256
  6
BYLAYER
 49
-0.5
 62
   256
  6
BYLAYER
  0
ACDBPLACEHOLDER
  5
F
102
{ACAD_REACTORS
330
E
102
}
330
E
  0
SCALE
  5
48
102
{ACAD_REACTORS
330
47
102
}
330
47
100
AcDbScale
 70
     0
300
1:1
140
1.0
141
1.0
290
     1
  0
SCALE
  5
49
102
{ACAD_REACTORS
330
47
102
}
330
47
100
AcDbScale
 70
     0
300
1:2
140
1.0
141
2.0
290
     0
  0
SCALE
  5
4A
102
{ACAD_REACTORS
330
47
102
}
330
47
100
AcDbScale
 70
     0
300
1:4
140
1.0
141
4.0
290
     0
  0
SCALE
  5
4B
102
{ACAD_REACTORS
330
47
102
}
330
47
100
AcDbScale
 70
     0
300
1:5
140
1.0
141
5.0
290
     0
  0
SCALE
  5
4C
102
{ACAD_REACTORS
330
47
102
}
330
47
100
AcDbScale
 70
     0
300
1:8
140
1.0
141
8.0
290
     0
  0
SCALE
  5
4D
102
{ACAD_REACTORS
330
47
102
}
330
47
100
AcDbScale
 70
     0
300
1:10
140
1.0
141
10.0
290
     0
  0
SCALE
  5
4E
102
{ACAD_REACTORS
330
47
102
}
330
47
100
AcDbScale
 70
     0
300
1:16
140
1.0
141
16.0
290
     0
  0
SCALE
  5
4F
102
{ACAD_REACTORS
330
47
102
}
330
47
100
AcDbScale
 70
     0
300
1:20
140
1.0
141
20.0
290
     0
  0
SCALE
  5
50
102
{ACAD_REACTORS
330
47
102
}
330
47
100
AcDbScale
 70
     0
300
1:30
140
1.0
141
30.0
290
     0
  0
SCALE
  5
51
102
{ACAD_REACTORS
330
47
102
}
330
47
100
AcDbScale
 70
     0
300
1:40
140
1.0
141
40.0
290
     0
  0
SCALE
  5
52
102
{ACAD_REACTORS
330
47
102
}
330
47
100
AcDbScale
 70
     0
300
1:50
140
1.0
141
50.0
290
     0
  0
SCALE
  5
53
102
{ACAD_REACTORS
330
47
102
}
330
47
100
AcDbScale
 70
     0
300
1:100
140
1.0
141
100.0
290
     0
  0
SCALE
  5
54
102
{ACAD_REACTORS
330
47
102
}
330
47
100
AcDbScale
 70
     0
300
2:1
140
2.0
141
1.0
290
     0
  0
SCALE
  5
55
102
{ACAD_REACTORS
330
47
102
}
330
47
100
AcDbScale
 70
     0
300
4:1
140
4.0
141
1.0
290
     0
  0
SCALE
  5
56
102
{ACAD_REACTORS
330
47
102
}
330
47
100
AcDbScale
 70
     0
300
8:1
140
8.0
141
1.0
290
     0
  0
SCALE
  5
57
102
{ACAD_REACTORS
330
47
102
}
330
47
100
AcDbScale
 70
     0
300
10:1
140
10.0
141
1.0
290
     0
  0
SCALE
  5
58
102
{ACAD_REACTORS
330
47
102
}
330
47
100
AcDbScale
 70
     0
300
100:1
140
100.0
141
1.0
290
     0
  0
SCALE
  5
59
102
{ACAD_REACTORS
330
47
102
}
330
47
100
AcDbScale
 70
     0
300
1/128" = 1'-0"
140
0.007812
141
12.0
290
     0
  0
SCALE
  5
5A
102
{ACAD_REACTORS
330
47
102
}
330
47
100
AcDbScale
 70
     0
300
1/64" = 1'-0"
140
0.015625
141
12.0
290
     0
  0
SCALE
  5
5B
102
{ACAD_REACTORS
330
47
102
}
330
47
100
AcDbScale
 70
     0
300
1/32" = 1'-0"
140
0.03125
141
12.0
290
     0
  0
SCALE
  5
5C
102
{ACAD_REACTORS
330
47
102
}
330
47
100
AcDbScale
 70
     0
300
1/16" = 1'-0"
140
0.0625
141
12.0
290
     0
  0
SCALE
  5
5D
102
{ACAD_REACTORS
330
47
102
}
330
47
100
AcDbScale
 70
     0
300
3/32" = 1'-0"
140
0.09375
141
12.0
290
     0
  0
SCALE
  5
5E
102
{ACAD_REACTORS
330
47
102
}
330
47
100
AcDbScale
 70
     0
300
1/8" = 1'-0"
140
0.125
141
12.0
290
     0
  0
SCALE
  5
5F
102
{ACAD_REACTORS
330
47
102
}
330
47
100
AcDbScale
 70
     0
300
3/16" = 1'-0"
140
0.1875
141
12.0
290
     0
  0
SCALE
  5
60
102
{ACAD_REACTORS
330
47
102
}
330
47
100
AcDbScale
 70
     0
300
1/4" = 1'-0"
140
0.25
141
12.0
290
     0
  0
SCALE
  5
61
102
{ACAD_REACTORS
330
47
102
}
330
47
100
AcDbScale
 70
     0
300
3/8" = 1'-0"
140
0.375
141
12.0
290
     0
  0
SCALE
  5
62
102
{ACAD_REACTORS
330
47
102
}
330
47
100
AcDbScale
 70
     0
300
1/2" = 1'-0"
140
0.5
141
12.0
290
     0
  0
SCALE
  5
63
102
{ACAD_REACTORS
330
47
102
}
330
47
100
AcDbScale
 70
     0
300
3/4" = 1'-0"
140
0.75
141
12.0
290
     0
  0
SCALE
  5
64
102
{ACAD_REACTORS
330
47
102
}
330
47
100
AcDbScale
 70
     0
300
1" = 1'-0"
140
1.0
141
12.0
290
     0
  0
SCALE
  5
65
102
{ACAD_REACTORS
330
47
102
}
330
47
100
AcDbScale
 70
     0
300
1-1/2" = 1'-0"
140
1.5
141
12.0
290
     0
  0
SCALE
  5
66
102
{ACAD_REACTORS
330
47
102
}
330
47
100
AcDbScale
 70
     0
300
3" = 1'-0"
140
3.0
141
12.0
290
     0
  0
SCALE
  5
67
102
{ACAD_REACTORS
330
47
102
}
330
47
100
AcDbScale
 70
     0
300
6" = 1'-0"
140
6.0
141
12.0
290
     0
  0
SCALE
  5
68
102
{ACAD_REACTORS
330
47
102
}
330
47
100
AcDbScale
 70
     0
300
1'-0" = 1'-0"
140
12.0
141
12.0
290
     0
  0
TABLESTYLE
  5
6A
102
{ACAD_REACTORS
330
69
102
}
102
{ACAD_XDICTIONARY
360
1AF
102
}
330
69
100
AcDbTableStyle
  3
Standard
 70
     0
 71
     0
 40
0.06
 41
0.06
280
     0
281
     0
  7
Standard
140
0.18
170
     2
 62
     0
 63
   257
283
     0
274
    -2
284
     1
 64
     0
275
    -2
285
     1
 65
     0
276
    -2
286
     1
 66
     0
277
    -2
287
     1
 67
     0
278
    -2
288
     1
 68
     0
279
    -2
289
     1
 69
     0
  7
Standard
140
0.25
170
     5
 62
     0
 63
   257
283
     0
274
    -2
284
     1
 64
     0
275
    -2
285
     1
 65
     0
276
    -2
286
     1
 66
     0
277
    -2
287
     1
 67
     0
278
    -2
288
     1
 68
     0
279
    -2
289
     1
 69
     0
  7
Standard
140
0.18
170
     5
 62
     0
 63
   257
283
     0
274
    -2
284
     1
 64
     0
275
    -2
285
     1
 65
     0
276
    -2
286
     1
 66
     0
277
    -2
287
     1
 67
     0
278
    -2
288
     1
 68
     0
279
    -2
289
     1
 69
     0
  0
VISUALSTYLE
  5
2F
102
{ACAD_REACTORS
330
2A
102
}
102
{ACAD_XDICTIONARY
360
181
102
}
330
2A
100
AcDbVisualStyle
  2
2dWireframe
 70
     4
 71
     0
 72
     2
 73
     0
 90
        0
 40
0.6
 41
30.0
 62
     5
 63
     7
421
 16777215
 74
     1
 91
        4
 64
     7
 65
   257
 75
     1
175
     1
 42
1.0
 92
        0
 66
   257
 43
1.0
 76
     1
 77
     6
 78
     2
 67
     7
 79
     5
170
     0
171
     0
290
     0
174
     0
 93
        1
 44
0.0
173
     0
291
     0
 45
0.0
1001
ACAD
1000
AcDbSavedByObjectVersion
1070
     0
  0
VISUALSTYLE
  5
32
102
{ACAD_REACTORS
330
2A
102
}
102
{ACAD_XDICTIONARY
360
187
102
}
330
2A
100
AcDbVisualStyle
  2
Basic
 70
     7
 71
     1
 72
     0
 73
     1
 90
        0
 40
0.6
 41
30.0
 62
     5
 63
     7
421
 16777215
 74
     0
 91
        4
 64
     7
 65
   257
 75
     1
175
     1
 42
1.0
 92
        8
 66
     7
 43
1.0
 76
     1
 77
     6
 78
     2
 67
     7
 79
     5
170
     0
171
     0
290
     0
174
     0
 93
        1
 44
0.0
173
     0
291
     1
 45
0.0
1001
ACAD
1000
AcDbSavedByObjectVersion
1070
     0
  0
VISUALSTYLE
  5
36
102
{ACAD_REACTORS
330
2A
102
}
102
{ACAD_XDICTIONARY
360
18F
102
}
330
2A
100
AcDbVisualStyle
  2
Brighten
 70
    12
 71
     2
 72
     2
 73
     0
 90
        0
 40
0.6
 41
30.0
 62
     5
 63
     7
421
 16777215
 74
     1
 91
        4
 64
     7
 65
   257
 75
     1
175
     1
 42
1.0
 92
        8
 66
     7
 43
1.0
 76
     1
 77
     6
 78
     2
 67
     7
 79
     5
170
     0
171
     0
290
     0
174
     0
 93
        1
 44
50.0
173
     0
291
     1
 45
0.0
1001
ACAD
1000
AcDbSavedByObjectVersion
1070
     0
  0
VISUALSTYLE
  5
3A
102
{ACAD_REACTORS
330
2A
102
}
102
{ACAD_XDICTIONARY
360
197
102
}
330
2A
100
AcDbVisualStyle
  2
ColorChange
 70
    16
 71
     2
 72
     2
 73
     3
 90
        0
 40
0.6
 41
30.0
 62
     5
 63
     8
421
  8421504
 74
     1
 91
        4
 64
     7
 65
   257
 75
     1
175
     1
 42
1.0
 92
        8
 66
     8
424
  8421504
 43
1.0
 76
     1
 77
     6
 78
     2
 67
     7
 79
     5
170
     0
171
     0
290
     0
174
     0
 93
        1
 44
0.0
173
     0
291
     1
 45
0.0
1001
ACAD
1000
AcDbSavedByObjectVersion
1070
     0
  0
VISUALSTYLE
  5
34
102
{ACAD_REACTORS
330
2A
102
}
102
{ACAD_XDICTIONARY
360
18B
102
}
330
2A
100
AcDbVisualStyle
  2
Conceptual
 70
     9
 71
     3
 72
     2
 73
     0
 90
        0
 40
0.6
 41
30.0
 62
     5
 63
     7
421
 16777215
 74
     2
 91
        2
 64
     7
 65
   257
 75
     1
175
     1
 42
179.0
 92
        8
 66
     7
 43
1.0
 76
     1
 77
     6
 78
     2
 67
     7
 79
     3
170
     0
171
     0
290
     0
174
     0
 93
        1
 44
0.0
173
     0
291
     0
 45
0.0
1001
ACAD
1000
AcDbSavedByObjectVersion
1070
     0
  0
VISUALSTYLE
  5
35
102
{ACAD_REACTORS
330
2A
102
}
102
{ACAD_XDICTIONARY
360
18D
102
}
330
2A
100
AcDbVisualStyle
  2
Dim
 70
    11
 71
     2
 72
     2
 73
     0
 90
        0
 40
0.6
 41
30.0
 62
     5
 63
     7
421
 16777215
 74
     1
 91
        4
 64
     7
 65
   257
 75
     1
175
     1
 42
1.0
 92
        8
 66
     7
 43
1.0
 76
     1
 77
     6
 78
     2
 67
     7
 79
     5
170
     0
171
     0
290
     0
174
     0
 93
        1
 44
-50.0
173
     0
291
     1
 45
0.0
1001
ACAD
1000
AcDbSavedByObjectVersion
1070
     0
  0
VISUALSTYLE
  5
3D
102
{ACAD_REACTORS
330
2A
102
}
102
{ACAD_XDICTIONARY
360
19D
102
}
330
2A
100
AcDbVisualStyle
  2
EdgeColorOff
 70
    22
 71
     2
 72
     2
 73
     0
 90
        0
 40
0.6
 41
30.0
 62
     5
 63
     7
421
 16777215
 74
     1
 91
        4
 64
     7
 65
   257
 75
     1
175
     1
 42
1.0
 92
        8
 66
     7
 43
1.0
 76
     1
 77
     6
 78
     2
 67
     7
 79
     5
170
     0
171
     0
290
     0
174
     0
 93
        1
 44
0.0
173
     0
291
     1
 45
0.0
1001
ACAD
1000
AcDbSavedByObjectVersion
1070
     0
  0
VISUALSTYLE
  5
39
102
{ACAD_REACTORS
330
2A
102
}
102
{ACAD_XDICTIONARY
360
195
102
}
330
2A
100
AcDbVisualStyle
  2
Facepattern
 70
    15
 71
     2
 72
     2
 73
     0
 90
        0
 40
0.6
 41
30.0
 62
     5
 63
     7
421
 16777215
 74
     1
 91
        4
 64
     7
 65
   257
 75
     1
175
     1
 42
1.0
 92
        8
 66
     7
 43
1.0
 76
     1
 77
     6
 78
     2
 67
     7
 79
     5
170
     0
171
     0
290
     0
174
     0
 93
        1
 44
0.0
173
     0
291
     1
 45
0.0
1001
ACAD
1000
AcDbSavedByObjectVersion
1070
     0
  0
VISUALSTYLE
  5
2B
102
{ACAD_REACTORS
330
2A
102
}
102
{ACAD_XDICTIONARY
360
179
102
}
330
2A
100
AcDbVisualStyle
  2
Flat
 70
     0
 71
     2
 72
     1
 73
     1
 90
        2
 40
0.6
 41
30.0
 62
     5
 63
     7
421
 16777215
 74
     0
 91
        0
 64
     7
 65
   257
 75
     1
175
     1
 42
1.0
 92
        8
 66
     7
 43
1.0
 76
     1
 77
     6
 78
     2
 67
     7
 79
     5
170
     0
171
     0
290
     0
174
     0
 93
       13
 44
0.0
173
     0
291
     1
 45
0.0
1001
ACAD
1000
AcDbSavedByObjectVersion
1070
     0
  0
VISUALSTYLE
  5
2C
102
{ACAD_REACTORS
330
2A
102
}
102
{ACAD_XDICTIONARY
360
17B
102
}
330
2A
100
AcDbVisualStyle
  2
FlatWithEdges
 70
     1
 71
     2
 72
     1
 73
     1
 90
        2
 40
0.6
 41
30.0
 62
     5
 63
     7
421
 16777215
 74
     1
 91
        0
 64
     7
 65
   257
 75
     1
175
     1
 42
1.0
 92
        0
 66
   257
 43
1.0
 76
     1
 77
     6
 78
     2
 67
     7
 79
     5
170
     0
171
     0
290
     0
174
     0
 93
       13
 44
0.0
173
     0
291
     1
 45
0.0
1001
ACAD
1000
AcDbSavedByObjectVersion
1070
     0
  0
VISUALSTYLE
  5
2D
102
{ACAD_REACTORS
330
2A
102
}
102
{ACAD_XDICTIONARY
360
17D
102
}
330
2A
100
AcDbVisualStyle
  2
Gouraud
 70
     2
 71
     2
 72
     2
 73
     1
 90
        2
 40
0.6
 41
30.0
 62
     5
 63
     7
421
 16777215
 74
     0
 91
        0
 64
     7
 65
   257
 75
     1
175
     1
 42
1.0
 92
        0
 66
     7
 43
1.0
 76
     1
 77
     6
 78
     2
 67
     7
 79
     5
170
     0
171
     0
290
     0
174
     0
 93
       13
 44
0.0
173
     0
291
     1
 45
0.0
1001
ACAD
1000
AcDbSavedByObjectVersion
1070
     0
  0
VISUALSTYLE
  5
2E
102
{ACAD_REACTORS
330
2A
102
}
102
{ACAD_XDICTIONARY
360
17F
102
}
330
2A
100
AcDbVisualStyle
  2
GouraudWithEdges
 70
     3
 71
     2
 72
     2
 73
     1
 90
        2
 40
0.6
 41
30.0
 62
     5
 63
     7
421
 16777215
 74
     1
 91
        0
 64
     7
 65
   257
 75
     1
175
     1
 42
1.0
 92
        0
 66
   257
 43
1.0
 76
     1
 77
     6
 78
     2
 67
     7
 79
     5
170
     0
171
     0
290
     0
174
     0
 93
       13
 44
0.0
173
     0
291
     1
 45
0.0
1001
ACAD
1000
AcDbSavedByObjectVersion
1070
     0
  0
VISUALSTYLE
  5
31
102
{ACAD_REACTORS
330
2A
102
}
102
{ACAD_XDICTIONARY
360
185
102
}
330
2A
100
AcDbVisualStyle
  2
Hidden
 70
     6
 71
     1
 72
     2
 73
     2
 90
        0
 40
0.6
 41
30.0
 62
     5
 63
     7
421
 16777215
 74
     2
 91
        2
 64
     7
 65
   257
 75
     2
175
     1
 42
40.0
 92
        0
 66
   257
 43
1.0
 76
     1
 77
     6
 78
     2
 67
     7
 79
     3
170
     0
171
     0
290
     0
174
     0
 93
        1
 44
0.0
173
     0
291
     0
 45
0.0
1001
ACAD
1000
AcDbSavedByObjectVersion
1070
     0
  0
VISUALSTYLE
  5
3B
102
{ACAD_REACTORS
330
2A
102
}
102
{ACAD_XDICTIONARY
360
199
102
}
330
2A
100
AcDbVisualStyle
  2
JitterOff
 70
    20
 71
     2
 72
     2
 73
     0
 90
        0
 40
0.6
 41
30.0
 62
     5
 63
     7
421
 16777215
 74
     1
 91
        4
 64
     7
 65
   257
 75
     1
175
     1
 42
1.0
 92
       10
 66
     7
 43
1.0
 76
     1
 77
     6
 78
     2
 67
     7
 79
     5
170
     0
171
     0
290
     0
174
     0
 93
        1
 44
0.0
173
     0
291
     1
 45
0.0
1001
ACAD
1000
AcDbSavedByObjectVersion
1070
     0
  0
VISUALSTYLE
  5
38
102
{ACAD_REACTORS
330
2A
102
}
102
{ACAD_XDICTIONARY
360
193
102
}
330
2A
100
AcDbVisualStyle
  2
Linepattern
 70
    14
 71
     2
 72
     2
 73
     0
 90
        0
 40
0.6
 41
30.0
 62
     5
 63
     7
421
 16777215
 74
     1
 91
        4
 64
     7
 65
   257
 75
     7
175
     7
 42
1.0
 92
        8
 66
     7
 43
1.0
 76
     1
 77
     6
 78
     2
 67
     7
 79
     5
170
     0
171
     0
290
     0
174
     0
 93
        1
 44
0.0
173
     0
291
     1
 45
0.0
1001
ACAD
1000
AcDbSavedByObjectVersion
1070
     0
  0
VISUALSTYLE
  5
3C
102
{ACAD_REACTORS
330
2A
102
}
102
{ACAD_XDICTIONARY
360
19B
102
}
330
2A
100
AcDbVisualStyle
  2
OverhangOff
 70
    21
 71
     2
 72
     2
 73
     0
 90
        0
 40
0.6
 41
30.0
 62
     5
 63
     7
421
 16777215
 74
     1
 91
        4
 64
     7
 65
   257
 75
     1
175
     1
 42
1.0
 92
        9
 66
     7
 43
1.0
 76
     1
 77
     6
 78
     2
 67
     7
 79
     5
170
     0
171
     0
290
     0
174
     0
 93
        1
 44
0.0
173
     0
291
     1
 45
0.0
1001
ACAD
1000
AcDbSavedByObjectVersion
1070
     0
  0
VISUALSTYLE
  5
33
102
{ACAD_REACTORS
330
2A
102
}
102
{ACAD_XDICTIONARY
360
189
102
}
330
2A
100
AcDbVisualStyle
  2
Realistic
 70
     8
 71
     2
 72
     3
 73
     0
 90
        2
 40
0.6
 41
30.0
 62
     5
 63
     7
421
 16777215
 74
     0
 91
        0
 64
     7
 65
   257
 75
     1
175
     1
 42
1.0
 92
        8
 66
   257
 43
1.0
 76
     1
 77
     6
 78
     2
 67
     7
 79
     3
170
     0
171
     0
290
     0
174
     0
 93
       13
 44
0.0
173
     0
291
     0
 45
0.0
1001
ACAD
1000
AcDbSavedByObjectVersion
1070
     0
  0
VISUALSTYLE
  5
42
102
{ACAD_REACTORS
330
2A
102
}
102
{ACAD_XDICTIONARY
360
1A7
102
}
330
2A
100
AcDbVisualStyle
  2
Shaded
 70
    27
 71
     2
 72
     2
 73
     1
 90
        2
 40
0.6
 41
30.0
 62
     5
 63
     7
421
 16777215
 74
     0
 91
        4
 64
     7
 65
   257
 75
     1
175
     1
 42
1.0
 92
        8
 66
   257
 43
1.0
 76
     1
 77
     6
 78
     2
 67
     8
425
  7895160
 79
     3
170
     0
171
     0
290
     0
174
     0
 93
        5
 44
0.0
173
     0
291
     0
 45
0.0
1001
ACAD
1000
AcDbSavedByObjectVersion
1070
     0
  0
VISUALSTYLE
  5
41
102
{ACAD_REACTORS
330
2A
102
}
102
{ACAD_XDICTIONARY
360
1A5
102
}
330
2A
100
AcDbVisualStyle
  2
Shaded with edges
 70
    26
 71
     2
 72
     2
 73
     1
 90
        2
 40
0.6
 41
30.0
 62
     5
 63
     7
421
 16777215
 74
     1
 91
       10
 64
     7
 65
   257
 75
     2
175
     1
 42
1.0
 92
        8
 66
   257
 43
1.0
 76
     1
 77
     6
 78
     2
 67
     7
 79
     3
170
     0
171
     0
290
     0
174
     0
 93
        5
 44
0.0
173
     0
291
     0
 45
0.0
1001
ACAD
1000
AcDbSavedByObjectVersion
1070
     0
  0
VISUALSTYLE
  5
3E
102
{ACAD_REACTORS
330
2A
102
}
102
{ACAD_XDICTIONARY
360
19F
102
}
330
2A
100
AcDbVisualStyle
  2
Shades of Gray
 70
    23
 71
     2
 72
     2
 73
     3
 90
        0
 40
0.6
 41
30.0
 62
     5
 63
     7
421
 16777215
 74
     2
 91
        2
 64
     7
 65
     7
 75
     1
175
     1
 42
40.0
 92
        8
 66
     7
 43
1.0
 76
     1
 77
     6
 78
     2
 67
     7
 79
     3
170
     0
171
     0
290
     0
174
     0
 93
        1
 44
0.0
173
     0
291
     0
 45
0.0
1001
ACAD
1000
AcDbSavedByObjectVersion
1070
     0
  0
VISUALSTYLE
  5
3F
102
{ACAD_REACTORS
330
2A
102
}
102
{ACAD_XDICTIONARY
360
1A1
102
}
330
2A
100
AcDbVisualStyle
  2
Sketchy
 70
    24
 71
     1
 72
     2
 73
     2
 90
        0
 40
0.6
 41
30.0
 62
     5
 63
     7
421
 16777215
 74
     2
 91
        2
 64
     7
 65
     7
 75
     1
175
     1
 42
40.0
 92
       11
 66
     7
 43
1.0
 76
     1
 77
     6
 78
     2
 67
     7
 79
     6
170
     0
171
     0
290
     0
174
     0
 93
        1
 44
0.0
173
     0
291
     0
 45
0.0
1001
ACAD
1000
AcDbSavedByObjectVersion
1070
     0
  0
VISUALSTYLE
  5
37
102
{ACAD_REACTORS
330
2A
102
}
102
{ACAD_XDICTIONARY
360
191
102
}
330
2A
100
AcDbVisualStyle
  2
Thicken
 70
    13
 71
     2
 72
     2
 73
     0
 90
        0
 40
0.6
 41
30.0
 62
     5
 63
     7
421
 16777215
 74
     1
 91
        4
 64
     7
 65
   257
 75
     1
175
     1
 42
1.0
 92
       12
 66
     7
 43
1.0
 76
     1
 77
     6
 78
     2
 67
     7
 79
     5
170
     0
171
     0
290
     0
174
     0
 93
        1
 44
0.0
173
     0
291
     1
 45
0.0
1001
ACAD
1000
AcDbSavedByObjectVersion
1070
     0
  0
VISUALSTYLE
  5
30
102
{ACAD_REACTORS
330
2A
102
}
102
{ACAD_XDICTIONARY
360
183
102
}
330
2A
100
AcDbVisualStyle
  2
Wireframe
 70
     5
 71
     0
 72
     2
 73
     0
 90
        0
 40
0.6
 41
30.0
 62
     5
 63
     7
421
 16777215
 74
     1
 91
        4
 64
     7
 65
   257
 75
     1
175
     1
 42
1.0
 92
        0
 66
   257
 43
1.0
 76
     1
 77
     6
 78
     2
 67
     7
 79
     3
170
     0
171
     0
290
     0
174
     0
 93
        1
 44
0.0
173
     0
291
     0
 45
0.0
1001
ACAD
1000
AcDbSavedByObjectVersion
1070
     0
  0
VISUALSTYLE
  5
40
102
{ACAD_REACTORS
330
2A
102
}
102
{ACAD_XDICTIONARY
360
1A3
102
}
330
2A
100
AcDbVisualStyle
  2
X-Ray
 70
    25
 71
     2
 72
     2
 73
     1
 90
        1
 40
0.5
 41
30.0
 62
     5
 63
     7
421
 16777215
 74
     1
 91
        0
 64
     7
 65
   257
 75
     1
175
     1
 42
1.0
 92
        8
 66
     7
 43
1.0
 76
     1
 77
     6
 78
     2
 67
     7
 79
     3
170
     0
171
     0
290
     0
174
     0
 93
       13
 44
0.0
173
     0
291
     0
 45
0.0
1001
ACAD
1000
AcDbSavedByObjectVersion
1070
     0
  0
DICTIONARYVAR
  5
176
102
{ACAD_REACTORS
330
175
102
}
330
175
100
DictionaryVariables
280
     0
  1
1:1
  0
DICTIONARYVAR
  5
1B7
102
{ACAD_REACTORS
330
175
102
}
330
175
100
DictionaryVariables
280
     0
  1
Standard
  0
DICTIONARYVAR
  5
1B6
102
{ACAD_REACTORS
330
175
102
}
330
175
100
DictionaryVariables
280
     0
  1
Standard
  0
DICTIONARYVAR
  5
177
102
{ACAD_REACTORS
330
175
102
}
330
175
100
DictionaryVariables
280
     0
  1
1
  0
DICTIONARYVAR
  5
178
102
{ACAD_REACTORS
330
175
102
}
330
175
100
DictionaryVariables
280
     0
  1
2
  0
DICTIONARY
  5
1AB
330
45
100
AcDbDictionary
280
     1
281
     1
  3
ACAD_XREC_ROUNDTRIP
360
1AC
  0
DICTIONARY
  5
1A9
330
44
100
AcDbDictionary
280
     1
281
     1
  3
ACAD_XREC_ROUNDTRIP
360
1AA
  0
DICTIONARY
  5
1AD
330
46
100
AcDbDictionary
280
     1
281
     1
  3
ACAD_XREC_ROUNDTRIP
360
1AE
  0
DICTIONARY
  5
1B3
330
6C
100
AcDbDictionary
280
     1
281
     1
  3
ACAD_XREC_ROUNDTRIP
360
1B4
  0
DICTIONARY
  5
1AF
330
6A
100
AcDbDictionary
280
     1
281
     1
  3
ACAD_ROUNDTRIP_2008_TABLESTYLE_CELLSTYLEMAP
360
1B1
  3
ACAD_XREC_ROUNDTRIP
360
1B0
  0
DICTIONARY
  5
181
330
2F
100
AcDbDictionary
280
     1
281
     1
  3
ACAD_XREC_ROUNDTRIP
360
182
  0
DICTIONARY
  5
187
330
32
100
AcDbDictionary
280
     1
281
     1
  3
ACAD_XREC_ROUNDTRIP
360
188
  0
DICTIONARY
  5
18F
330
36
100
AcDbDictionary
280
     1
281
     1
  3
ACAD_XREC_ROUNDTRIP
360
190
  0
DICTIONARY
  5
197
330
3A
100
AcDbDictionary
280
     1
281
     1
  3
ACAD_XREC_ROUNDTRIP
360
198
  0
DICTIONARY
  5
18B
330
34
100
AcDbDictionary
280
     1
281
     1
  3
ACAD_XREC_ROUNDTRIP
360
18C
  0
DICTIONARY
  5
18D
330
35
100
AcDbDictionary
280
     1
281
     1
  3
ACAD_XREC_ROUNDTRIP
360
18E
  0
DICTIONARY
  5
19D
330
3D
100
AcDbDictionary
280
     1
281
     1
  3
ACAD_XREC_ROUNDTRIP
360
19E
  0
DICTIONARY
  5
195
330
39
100
AcDbDictionary
280
     1
281
     1
  3
ACAD_XREC_ROUNDTRIP
360
196
  0
DICTIONARY
  5
179
330
2B
100
AcDbDictionary
280
     1
281
     1
  3
ACAD_XREC_ROUNDTRIP
360
17A
  0
DICTIONARY
  5
17B
330
2C
100
AcDbDictionary
280
     1
281
     1
  3
ACAD_XREC_ROUNDTRIP
360
17C
  0
DICTIONARY
  5
17D
330
2D
100
AcDbDictionary
280
     1
281
     1
  3
ACAD_XREC_ROUNDTRIP
360
17E
  0
DICTIONARY
  5
17F
330
2E
100
AcDbDictionary
280
     1
281
     1
  3
ACAD_XREC_ROUNDTRIP
360
180
  0
DICTIONARY
  5
185
330
31
100
AcDbDictionary
280
     1
281
     1
  3
ACAD_XREC_ROUNDTRIP
360
186
  0
DICTIONARY
  5
199
330
3B
100
AcDbDictionary
280
     1
281
     1
  3
ACAD_XREC_ROUNDTRIP
360
19A
  0
DICTIONARY
  5
193
330
38
100
AcDbDictionary
280
     1
281
     1
  3
ACAD_XREC_ROUNDTRIP
360
194
  0
DICTIONARY
  5
19B
330
3C
100
AcDbDictionary
280
     1
281
     1
  3
ACAD_XREC_ROUNDTRIP
360
19C
  0
DICTIONARY
  5
189
330
33
100
AcDbDictionary
280
     1
281
     1
  3
ACAD_XREC_ROUNDTRIP
360
18A
  0
DICTIONARY
  5
1A7
330
42
100
AcDbDictionary
280
     1
281
     1
  3
ACAD_XREC_ROUNDTRIP
360
1A8
  0
DICTIONARY
  5
1A5
330
41
100
AcDbDictionary
280
     1
281
     1
  3
ACAD_XREC_ROUNDTRIP
360
1A6
  0
DICTIONARY
  5
19F
330
3E
100
AcDbDictionary
280
     1
281
     1
  3
ACAD_XREC_ROUNDTRIP
360
1A0
  0
DICTIONARY
  5
1A1
330
3F
100
AcDbDictionary
280
     1
281
     1
  3
ACAD_XREC_ROUNDTRIP
360
1A2
  0
DICTIONARY
  5
191
330
37
100
AcDbDictionary
280
     1
281
     1
  3
ACAD_XREC_ROUNDTRIP
360
192
  0
DICTIONARY
  5
183
330
30
100
AcDbDictionary
280
     1
281
     1
  3
ACAD_XREC_ROUNDTRIP
360
184
  0
DICTIONARY
  5
1A3
330
40
100
AcDbDictionary
280
     1
281
     1
  3
ACAD_XREC_ROUNDTRIP
360
1A4
  0
XRECORD
  5
1AC
102
{ACAD_REACTORS
330
1AB
102
}
330
1AB
100
AcDbXrecord
280
     1
102
MATERIAL
148
0.0
149
0.0
149
0.0
 93
        0
 94
      127
282
     0
 72
     1
 77
     1
171
     1
175
     1
179
     1
273
     0
  0
XRECORD
  5
1AA
102
{ACAD_REACTORS
330
1A9
102
}
330
1A9
100
AcDbXrecord
280
     1
102
MATERIAL
148
0.0
149
0.0
149
0.0
 93
        0
 94
      127
282
     0
 72
     1
 77
     1
171
     1
175
     1
179
     1
273
     0
  0
XRECORD
  5
1AE
102
{ACAD_REACTORS
330
1AD
102
}
330
1AD
100
AcDbXrecord
280
     1
102
MATERIAL
148
0.0
149
0.0
149
0.0
 93
        0
 94
      127
282
     0
 72
     1
 77
     1
171
     1
175
     1
179
     1
273
     0
  0
XRECORD
  5
1B4
102
{ACAD_REACTORS
330
1B3
102
}
330
1B3
100
AcDbXrecord
280
     1
102
ACAD_ROUNDTRIP_2010_MLEADER_STYLE
  0
CELLSTYLEMAP
  5
1B1
102
{ACAD_REACTORS
330
1AF
102
}
330
1AF
100
AcDbCellStyleMap
 90
        3
300
CELLSTYLE
  1
TABLEFORMAT_BEGIN
 90
        5
170
     1
 91
        0
 92
    32768
 62
   257
 93
        1
300
CONTENTFORMAT
  1
CONTENTFORMAT_BEGIN
 90
        0
 91
        0
 92
        4
 93
        0
300

 40
0.0
140
1.0
 94
        5
 62
     0
340
11
144
0.25
309
CONTENTFORMAT_END
171
     1
301
MARGIN
  1
CELLMARGIN_BEGIN
 40
0.06
 40
0.06
 40
0.06
 40
0.06
 40
0.06
 40
0.06
309
CELLMARGIN_END
 94
        6
 95
        1
302
GRIDFORMAT
  1
GRIDFORMAT_BEGIN
 90
        0
 91
        1
 62
     0
 92
       -2
340
14
 93
        0
 40
0.045
309
GRIDFORMAT_END
 95
        2
302
GRIDFORMAT
  1
GRIDFORMAT_BEGIN
 90
        0
 91
        1
 62
     0
 92
       -2
340
14
 93
        0
 40
0.045
309
GRIDFORMAT_END
 95
        4
302
GRIDFORMAT
  1
GRIDFORMAT_BEGIN
 90
        0
 91
        1
 62
     0
 92
       -2
340
14
 93
        0
 40
0.045
309
GRIDFORMAT_END
 95
        8
302
GRIDFORMAT
  1
GRIDFORMAT_BEGIN
 90
        0
 91
        1
 62
     0
 92
       -2
340
14
 93
        0
 40
0.045
309
GRIDFORMAT_END
 95
       16
302
GRIDFORMAT
  1
GRIDFORMAT_BEGIN
 90
        0
 91
        1
 62
     0
 92
       -2
340
14
 93
        0
 40
0.045
309
GRIDFORMAT_END
 95
       32
302
GRIDFORMAT
  1
GRIDFORMAT_BEGIN
 90
        0
 91
        1
 62
     0
 92
       -2
340
14
 93
        0
 40
0.045
309
GRIDFORMAT_END
309
TABLEFORMAT_END
  1
CELLSTYLE_BEGIN
 90
        1
 91
        1
300
_TITLE
309
CELLSTYLE_END
300
CELLSTYLE
  1
TABLEFORMAT_BEGIN
 90
        5
170
     1
 91
        0
 92
        0
 62
   257
 93
        1
300
CONTENTFORMAT
  1
CONTENTFORMAT_BEGIN
 90
        0
 91
        0
 92
        4
 93
        0
300

 40
0.0
140
1.0
 94
        5
 62
     0
340
11
144
0.18
309
CONTENTFORMAT_END
171
     1
301
MARGIN
  1
CELLMARGIN_BEGIN
 40
0.06
 40
0.06
 40
0.06
 40
0.06
 40
0.06
 40
0.06
309
CELLMARGIN_END
 94
        6
 95
        1
302
GRIDFORMAT
  1
GRIDFORMAT_BEGIN
 90
        0
 91
        1
 62
     0
 92
       -2
340
14
 93
        0
 40
0.045
309
GRIDFORMAT_END
 95
        2
302
GRIDFORMAT
  1
GRIDFORMAT_BEGIN
 90
        0
 91
        1
 62
     0
 92
       -2
340
14
 93
        0
 40
0.045
309
GRIDFORMAT_END
 95
        4
302
GRIDFORMAT
  1
GRIDFORMAT_BEGIN
 90
        0
 91
        1
 62
     0
 92
       -2
340
14
 93
        0
 40
0.045
309
GRIDFORMAT_END
 95
        8
302
GRIDFORMAT
  1
GRIDFORMAT_BEGIN
 90
        0
 91
        1
 62
     0
 92
       -2
340
14
 93
        0
 40
0.045
309
GRIDFORMAT_END
 95
       16
302
GRIDFORMAT
  1
GRIDFORMAT_BEGIN
 90
        0
 91
        1
 62
     0
 92
       -2
340
14
 93
        0
 40
0.045
309
GRIDFORMAT_END
 95
       32
302
GRIDFORMAT
  1
GRIDFORMAT_BEGIN
 90
        0
 91
        1
 62
     0
 92
       -2
340
14
 93
        0
 40
0.045
309
GRIDFORMAT_END
309
TABLEFORMAT_END
  1
CELLSTYLE_BEGIN
 90
        2
 91
        1
300
_HEADER
309
CELLSTYLE_END
300
CELLSTYLE
  1
TABLEFORMAT_BEGIN
 90
        5
170
     1
 91
        0
 92
        0
 62
   257
 93
        1
300
CONTENTFORMAT
  1
CONTENTFORMAT_BEGIN
 90
        0
 91
        0
 92
        4
 93
        0
300

 40
0.0
140
1.0
 94
        2
 62
     0
340
11
144
0.18
309
CONTENTFORMAT_END
171
     1
301
MARGIN
  1
CELLMARGIN_BEGIN
 40
0.06
 40
0.06
 40
0.06
 40
0.06
 40
0.06
 40
0.06
309
CELLMARGIN_END
 94
        6
 95
        1
302
GRIDFORMAT
  1
GRIDFORMAT_BEGIN
 90
        0
 91
        1
 62
     0
 92
       -2
340
14
 93
        0
 40
0.045
309
GRIDFORMAT_END
 95
        2
302
GRIDFORMAT
  1
GRIDFORMAT_BEGIN
 90
        0
 91
        1
 62
     0
 92
       -2
340
14
 93
        0
 40
0.045
309
GRIDFORMAT_END
 95
        4
302
GRIDFORMAT
  1
GRIDFORMAT_BEGIN
 90
        0
 91
        1
 62
     0
 92
       -2
340
14
 93
        0
 40
0.045
309
GRIDFORMAT_END
 95
        8
302
GRIDFORMAT
  1
GRIDFORMAT_BEGIN
 90
        0
 91
        1
 62
     0
 92
       -2
340
14
 93
        0
 40
0.045
309
GRIDFORMAT_END
 95
       16
302
GRIDFORMAT
  1
GRIDFORMAT_BEGIN
 90
        0
 91
        1
 62
     0
 92
       -2
340
14
 93
        0
 40
0.045
309
GRIDFORMAT_END
 95
       32
302
GRIDFORMAT
  1
GRIDFORMAT_BEGIN
 90
        0
 91
        1
 62
     0
 92
       -2
340
14
 93
        0
 40
0.045
309
GRIDFORMAT_END
309
TABLEFORMAT_END
  1
CELLSTYLE_BEGIN
 90
        3
 91
        2
300
_DATA
309
CELLSTYLE_END
  0
XRECORD
  5
1B0
102
{ACAD_REACTORS
330
1AF
102
}
330
1AF
100
AcDbXrecord
280
     1
102
ACAD_ROUNDTRIP_PRE2007_TABLESTYLE
 90
        4
 91
        0
  1

 92
        4
 93
        0
  2

 94
        4
 95
        0
  3

  0
XRECORD
  5
182
102
{ACAD_REACTORS
330
181
102
}
330
181
100
AcDbXrecord
280
     1
102
RTVSPropertyOp0
 70
     1
102
RTVSPropertyOp1
 70
     1
102
RTVSPropertyOp2
 70
     1
102
RTVSPropertyOp3
 70
     1
102
RTVSPropertyOp4
 70
     1
102
RTVSPropertyOp5
 70
     1
102
RTVSPropertyOp6
 70
     1
102
RTVSPropertyOp7
 70
     1
102
RTVSPropertyOp8
 70
     1
102
RTVSPropertyOp9
 70
     1
102
RTVSPropertyOp10
 70
     1
102
RTVSPropertyOp11
 70
     1
102
RTVSPropertyOp12
 70
     1
102
RTVSPropertyOp13
 70
     1
102
RTVSPropertyOp14
 70
     1
102
RTVSPropertyOp15
 70
     1
102
RTVSPropertyOp16
 70
     1
102
RTVSPropertyOp17
 70
     1
102
RTVSPropertyOp18
 70
     1
102
RTVSPropertyOp19
 70
     1
102
RTVSPropertyOp20
 70
     1
102
RTVSPropertyOp21
 70
     1
102
RTVSPropertyOp22
 70
     1
102
RTVSPropertyOp23
 70
     1
102
RTVSPropertyOp24
 70
     1
102
RTVSPropertyOp25
 70
     1
102
RTVSPropertyOp26
 70
     1
102
RTVSPropertyOp27
 70
     1
102
RTVSPropertyOp28
 70
     1
102
RTVSPropertyOp29
 70
     1
102
RTVSPropertyOp30
 70
     1
102
RTVSPropertyOp31
 70
     1
102
RTVSPropertyOp32
 70
     1
102
RTVSPropertyOp33
 70
     1
102
RTVSPropertyOp34
 70
     1
102
RTVSPropertyOp35
 70
     1
102
RTVSPropertyOp36
 70
     1
102
RTVSPropertyOp37
 70
     1
102
RTVSPropertyOp38
 70
     1
102
RTVSPropertyOp39
 70
     1
102
RTVSPropertyOp40
 70
     1
102
RTVSPropertyOp41
 70
     1
102
RTVSPropertyOp42
 70
     1
102
RTVSPropertyOp43
 70
     1
102
RTVSPropertyOp44
 70
     1
102
RTVSPropertyOp45
 70
     1
102
RTVSPropertyOp46
 70
     1
102
RTVSPropertyOp47
 70
     1
102
RTVSPropertyOp48
 70
     1
102
RTVSPropertyOp49
 70
     1
102
RTVSPropertyOp50
 70
     1
102
RTVSPropertyOp51
 70
     0
102
RTVSPropertyOp52
 70
     0
102
RTVSPropertyOp53
 70
     1
102
RTVSPropertyOp54
 70
     1
102
RTVSPropertyOp55
 70
     1
102
RTVSPropertyOp56
 70
     1
102
RTVSPropertyOp57
 70
     1
102
RTVSPost2010Prop28
280
     1
102
RTVSPost2010PropOp28
 70
     1
102
RTVSPost2010Prop29
280
     1
102
RTVSPost2010PropOp29
 70
     1
102
RTVSPost2010Prop30
280
     0
102
RTVSPost2010PropOp30
 70
     1
102
RTVSPost2010Prop31
280
     0
102
RTVSPost2010PropOp31
 70
     1
102
RTVSPost2010Prop32
280
     0
102
RTVSPost2010PropOp32
 70
     1
102
RTVSPost2010Prop33
280
     0
102
RTVSPost2010PropOp33
 70
     1
102
RTVSPost2010Prop34
280
     0
102
RTVSPost2010PropOp34
 70
     1
102
RTVSPost2010Prop35
280
     0
102
RTVSPost2010PropOp35
 70
     1
102
RTVSPost2010Prop36
280
     0
102
RTVSPost2010PropOp36
 70
     1
102
RTVSPost2010Prop37
 90
       50
102
RTVSPost2010PropOp37
 70
     1
102
RTVSPost2010Prop38
140
0.0
102
RTVSPost2010PropOp38
 70
     1
102
RTVSPost2010Prop39
140
1.0
102
RTVSPost2010PropOp39
 70
     1
102
RTVSPost2010Prop40
 90
        0
102
RTVSPost2010PropOp40
 70
     1
102
RTVSPost2010Prop41ColorIndex
 90
       18
102
RTVSPost2010Prop41ColorRGB
 90
        0
102
RTVSPost2010PropOp41
 70
     1
102
RTVSPost2010Prop42
 90
       50
102
RTVSPost2010PropOp42
 70
     1
102
RTVSPost2010Prop43
 90
        3
102
RTVSPost2010PropOp43
 70
     1
102
RTVSPost2010Prop44ColorIndex
 90
        5
102
RTVSPost2010Prop44ColorRGB
 90
      255
102
RTVSPost2010PropOp44
 70
     1
102
RTVSPost2010Prop45
280
     0
102
RTVSPost2010PropOp45
 70
     1
102
RTVSPost2010Prop46
 90
       50
102
RTVSPost2010PropOp46
 70
     1
102
RTVSPost2010Prop47
 90
       50
102
RTVSPost2010PropOp47
 70
     1
102
RTVSPost2010Prop48
 90
       50
102
RTVSPost2010PropOp48
 70
     1
102
RTVSPost2010Prop49
280
     0
102
RTVSPost2010PropOp49
 70
     1
102
RTVSPost2010Prop50
 90
       50
102
RTVSPost2010PropOp50
 70
     1
102
RTVSPost2010Prop51ColorIndex
 90
      256
102
RTVSPost2010Prop51ColorRGB
 90
-16777216
102
RTVSPost2010PropOp51
 70
     0
102
RTVSPost2010Prop52
140
1.0
102
RTVSPost2010PropOp52
 70
     0
102
RTVSPost2010Prop53
 90
        2
102
RTVSPost2010PropOp53
 70
     1
102
RTVSPost2010Prop54
  1
strokes_ogs.tif
102
RTVSPost2010PropOp54
 70
     1
102
RTVSPost2010Prop55
280
     0
102
RTVSPost2010PropOp55
 70
     1
102
RTVSPost2010Prop56
140
1.0
102
RTVSPost2010PropOp56
 70
     1
102
RTVSPost2010Prop57
140
1.0
102
RTVSPost2010PropOp57
 70
     1
  0
XRECORD
  5
188
102
{ACAD_REACTORS
330
187
102
}
330
187
100
AcDbXrecord
280
     1
102
RTVSPropertyOp0
 70
     1
102
RTVSPropertyOp1
 70
     1
102
RTVSPropertyOp2
 70
     1
102
RTVSPropertyOp3
 70
     1
102
RTVSPropertyOp4
 70
     1
102
RTVSPropertyOp5
 70
     1
102
RTVSPropertyOp6
 70
     1
102
RTVSPropertyOp7
 70
     1
102
RTVSPropertyOp8
 70
     1
102
RTVSPropertyOp9
 70
     1
102
RTVSPropertyOp10
 70
     1
102
RTVSPropertyOp11
 70
     1
102
RTVSPropertyOp12
 70
     1
102
RTVSPropertyOp13
 70
     1
102
RTVSPropertyOp14
 70
     1
102
RTVSPropertyOp15
 70
     1
102
RTVSPropertyOp16
 70
     1
102
RTVSPropertyOp17
 70
     1
102
RTVSPropertyOp18
 70
     1
102
RTVSPropertyOp19
 70
     1
102
RTVSPropertyOp20
 70
     1
102
RTVSPropertyOp21
 70
     1
102
RTVSPropertyOp22
 70
     1
102
RTVSPropertyOp23
 70
     1
102
RTVSPropertyOp24
 70
     1
102
RTVSPropertyOp25
 70
     1
102
RTVSPropertyOp26
 70
     1
102
RTVSPropertyOp27
 70
     1
102
RTVSPropertyOp28
 70
     1
102
RTVSPropertyOp29
 70
     1
102
RTVSPropertyOp30
 70
     1
102
RTVSPropertyOp31
 70
     1
102
RTVSPropertyOp32
 70
     1
102
RTVSPropertyOp33
 70
     1
102
RTVSPropertyOp34
 70
     1
102
RTVSPropertyOp35
 70
     1
102
RTVSPropertyOp36
 70
     1
102
RTVSPropertyOp37
 70
     1
102
RTVSPropertyOp38
 70
     1
102
RTVSPropertyOp39
 70
     1
102
RTVSPropertyOp40
 70
     1
102
RTVSPropertyOp41
 70
     1
102
RTVSPropertyOp42
 70
     1
102
RTVSPropertyOp43
 70
     1
102
RTVSPropertyOp44
 70
     1
102
RTVSPropertyOp45
 70
     1
102
RTVSPropertyOp46
 70
     1
102
RTVSPropertyOp47
 70
     1
102
RTVSPropertyOp48
 70
     1
102
RTVSPropertyOp49
 70
     1
102
RTVSPropertyOp50
 70
     1
102
RTVSPropertyOp51
 70
     0
102
RTVSPropertyOp52
 70
     0
102
RTVSPropertyOp53
 70
     1
102
RTVSPropertyOp54
 70
     1
102
RTVSPropertyOp55
 70
     1
102
RTVSPropertyOp56
 70
     1
102
RTVSPropertyOp57
 70
     1
102
RTVSPost2010Prop28
280
     0
102
RTVSPost2010PropOp28
 70
     1
102
RTVSPost2010Prop29
280
     1
102
RTVSPost2010PropOp29
 70
     1
102
RTVSPost2010Prop30
280
     1
102
RTVSPost2010PropOp30
 70
     1
102
RTVSPost2010Prop31
280
     0
102
RTVSPost2010PropOp31
 70
     1
102
RTVSPost2010Prop32
280
     0
102
RTVSPost2010PropOp32
 70
     1
102
RTVSPost2010Prop33
280
     0
102
RTVSPost2010PropOp33
 70
     1
102
RTVSPost2010Prop34
280
     0
102
RTVSPost2010PropOp34
 70
     1
102
RTVSPost2010Prop35
280
     0
102
RTVSPost2010PropOp35
 70
     1
102
RTVSPost2010Prop36
280
     0
102
RTVSPost2010PropOp36
 70
     1
102
RTVSPost2010Prop37
 90
       50
102
RTVSPost2010PropOp37
 70
     1
102
RTVSPost2010Prop38
140
0.0
102
RTVSPost2010PropOp38
 70
     1
102
RTVSPost2010Prop39
140
1.0
102
RTVSPost2010PropOp39
 70
     1
102
RTVSPost2010Prop40
 90
        0
102
RTVSPost2010PropOp40
 70
     1
102
RTVSPost2010Prop41ColorIndex
 90
       18
102
RTVSPost2010Prop41ColorRGB
 90
        0
102
RTVSPost2010PropOp41
 70
     1
102
RTVSPost2010Prop42
 90
       50
102
RTVSPost2010PropOp42
 70
     1
102
RTVSPost2010Prop43
 90
        3
102
RTVSPost2010PropOp43
 70
     1
102
RTVSPost2010Prop44ColorIndex
 90
        5
102
RTVSPost2010Prop44ColorRGB
 90
      255
102
RTVSPost2010PropOp44
 70
     1
102
RTVSPost2010Prop45
280
     0
102
RTVSPost2010PropOp45
 70
     1
102
RTVSPost2010Prop46
 90
       50
102
RTVSPost2010PropOp46
 70
     1
102
RTVSPost2010Prop47
 90
       50
102
RTVSPost2010PropOp47
 70
     1
102
RTVSPost2010Prop48
 90
       50
102
RTVSPost2010PropOp48
 70
     1
102
RTVSPost2010Prop49
280
     0
102
RTVSPost2010PropOp49
 70
     1
102
RTVSPost2010Prop50
 90
       50
102
RTVSPost2010PropOp50
 70
     1
102
RTVSPost2010Prop51ColorIndex
 90
      256
102
RTVSPost2010Prop51ColorRGB
 90
-16777216
102
RTVSPost2010PropOp51
 70
     0
102
RTVSPost2010Prop52
140
1.0
102
RTVSPost2010PropOp52
 70
     0
102
RTVSPost2010Prop53
 90
        2
102
RTVSPost2010PropOp53
 70
     1
102
RTVSPost2010Prop54
  1
strokes_ogs.tif
102
RTVSPost2010PropOp54
 70
     1
102
RTVSPost2010Prop55
280
     0
102
RTVSPost2010PropOp55
 70
     1
102
RTVSPost2010Prop56
140
1.0
102
RTVSPost2010PropOp56
 70
     1
102
RTVSPost2010Prop57
140
1.0
102
RTVSPost2010PropOp57
 70
     1
  0
XRECORD
  5
190
102
{ACAD_REACTORS
330
18F
102
}
330
18F
100
AcDbXrecord
280
     1
102
RTVSPropertyOp0
 70
     1
102
RTVSPropertyOp1
 70
     1
102
RTVSPropertyOp2
 70
     1
102
RTVSPropertyOp3
 70
     1
102
RTVSPropertyOp4
 70
     1
102
RTVSPropertyOp5
 70
     1
102
RTVSPropertyOp6
 70
     1
102
RTVSPropertyOp7
 70
     1
102
RTVSPropertyOp8
 70
     1
102
RTVSPropertyOp9
 70
     1
102
RTVSPropertyOp10
 70
     1
102
RTVSPropertyOp11
 70
     1
102
RTVSPropertyOp12
 70
     1
102
RTVSPropertyOp13
 70
     1
102
RTVSPropertyOp14
 70
     1
102
RTVSPropertyOp15
 70
     1
102
RTVSPropertyOp16
 70
     1
102
RTVSPropertyOp17
 70
     1
102
RTVSPropertyOp18
 70
     1
102
RTVSPropertyOp19
 70
     1
102
RTVSPropertyOp20
 70
     1
102
RTVSPropertyOp21
 70
     1
102
RTVSPropertyOp22
 70
     1
102
RTVSPropertyOp23
 70
     1
102
RTVSPropertyOp24
 70
     1
102
RTVSPropertyOp25
 70
     1
102
RTVSPropertyOp26
 70
     1
102
RTVSPropertyOp27
 70
     1
102
RTVSPropertyOp28
 70
     1
102
RTVSPropertyOp29
 70
     1
102
RTVSPropertyOp30
 70
     1
102
RTVSPropertyOp31
 70
     1
102
RTVSPropertyOp32
 70
     1
102
RTVSPropertyOp33
 70
     1
102
RTVSPropertyOp34
 70
     1
102
RTVSPropertyOp35
 70
     1
102
RTVSPropertyOp36
 70
     1
102
RTVSPropertyOp37
 70
     1
102
RTVSPropertyOp38
 70
     1
102
RTVSPropertyOp39
 70
     1
102
RTVSPropertyOp40
 70
     1
102
RTVSPropertyOp41
 70
     1
102
RTVSPropertyOp42
 70
     1
102
RTVSPropertyOp43
 70
     1
102
RTVSPropertyOp44
 70
     1
102
RTVSPropertyOp45
 70
     1
102
RTVSPropertyOp46
 70
     1
102
RTVSPropertyOp47
 70
     1
102
RTVSPropertyOp48
 70
     1
102
RTVSPropertyOp49
 70
     1
102
RTVSPropertyOp50
 70
     1
102
RTVSPropertyOp51
 70
     0
102
RTVSPropertyOp52
 70
     0
102
RTVSPropertyOp53
 70
     1
102
RTVSPropertyOp54
 70
     1
102
RTVSPropertyOp55
 70
     1
102
RTVSPropertyOp56
 70
     1
102
RTVSPropertyOp57
 70
     1
102
RTVSPost2010Prop28
280
     0
102
RTVSPost2010PropOp28
 70
     1
102
RTVSPost2010Prop29
280
     1
102
RTVSPost2010PropOp29
 70
     1
102
RTVSPost2010Prop30
280
     1
102
RTVSPost2010PropOp30
 70
     1
102
RTVSPost2010Prop31
280
     0
102
RTVSPost2010PropOp31
 70
     1
102
RTVSPost2010Prop32
280
     0
102
RTVSPost2010PropOp32
 70
     1
102
RTVSPost2010Prop33
280
     0
102
RTVSPost2010PropOp33
 70
     1
102
RTVSPost2010Prop34
280
     0
102
RTVSPost2010PropOp34
 70
     1
102
RTVSPost2010Prop35
280
     0
102
RTVSPost2010PropOp35
 70
     1
102
RTVSPost2010Prop36
280
     0
102
RTVSPost2010PropOp36
 70
     1
102
RTVSPost2010Prop37
 90
       50
102
RTVSPost2010PropOp37
 70
     1
102
RTVSPost2010Prop38
140
0.0
102
RTVSPost2010PropOp38
 70
     1
102
RTVSPost2010Prop39
140
1.0
102
RTVSPost2010PropOp39
 70
     1
102
RTVSPost2010Prop40
 90
        0
102
RTVSPost2010PropOp40
 70
     1
102
RTVSPost2010Prop41ColorIndex
 90
       18
102
RTVSPost2010Prop41ColorRGB
 90
        0
102
RTVSPost2010PropOp41
 70
     1
102
RTVSPost2010Prop42
 90
       50
102
RTVSPost2010PropOp42
 70
     1
102
RTVSPost2010Prop43
 90
        3
102
RTVSPost2010PropOp43
 70
     1
102
RTVSPost2010Prop44ColorIndex
 90
        5
102
RTVSPost2010Prop44ColorRGB
 90
      255
102
RTVSPost2010PropOp44
 70
     1
102
RTVSPost2010Prop45
280
     0
102
RTVSPost2010PropOp45
 70
     1
102
RTVSPost2010Prop46
 90
       50
102
RTVSPost2010PropOp46
 70
     1
102
RTVSPost2010Prop47
 90
       50
102
RTVSPost2010PropOp47
 70
     1
102
RTVSPost2010Prop48
 90
       50
102
RTVSPost2010PropOp48
 70
     1
102
RTVSPost2010Prop49
280
     0
102
RTVSPost2010PropOp49
 70
     1
102
RTVSPost2010Prop50
 90
       50
102
RTVSPost2010PropOp50
 70
     1
102
RTVSPost2010Prop51ColorIndex
 90
      256
102
RTVSPost2010Prop51ColorRGB
 90
-16777216
102
RTVSPost2010PropOp51
 70
     0
102
RTVSPost2010Prop52
140
1.0
102
RTVSPost2010PropOp52
 70
     0
102
RTVSPost2010Prop53
 90
        2
102
RTVSPost2010PropOp53
 70
     1
102
RTVSPost2010Prop54
  1
strokes_ogs.tif
102
RTVSPost2010PropOp54
 70
     1
102
RTVSPost2010Prop55
280
     0
102
RTVSPost2010PropOp55
 70
     1
102
RTVSPost2010Prop56
140
1.0
102
RTVSPost2010PropOp56
 70
     1
102
RTVSPost2010Prop57
140
1.0
102
RTVSPost2010PropOp57
 70
     1
  0
XRECORD
  5
198
102
{ACAD_REACTORS
330
197
102
}
330
197
100
AcDbXrecord
280
     1
102
RTVSPropertyOp0
 70
     1
102
RTVSPropertyOp1
 70
     1
102
RTVSPropertyOp2
 70
     1
102
RTVSPropertyOp3
 70
     1
102
RTVSPropertyOp4
 70
     1
102
RTVSPropertyOp5
 70
     1
102
RTVSPropertyOp6
 70
     1
102
RTVSPropertyOp7
 70
     1
102
RTVSPropertyOp8
 70
     1
102
RTVSPropertyOp9
 70
     1
102
RTVSPropertyOp10
 70
     1
102
RTVSPropertyOp11
 70
     1
102
RTVSPropertyOp12
 70
     1
102
RTVSPropertyOp13
 70
     1
102
RTVSPropertyOp14
 70
     1
102
RTVSPropertyOp15
 70
     1
102
RTVSPropertyOp16
 70
     1
102
RTVSPropertyOp17
 70
     1
102
RTVSPropertyOp18
 70
     1
102
RTVSPropertyOp19
 70
     1
102
RTVSPropertyOp20
 70
     1
102
RTVSPropertyOp21
 70
     1
102
RTVSPropertyOp22
 70
     1
102
RTVSPropertyOp23
 70
     1
102
RTVSPropertyOp24
 70
     1
102
RTVSPropertyOp25
 70
     1
102
RTVSPropertyOp26
 70
     1
102
RTVSPropertyOp27
 70
     1
102
RTVSPropertyOp28
 70
     1
102
RTVSPropertyOp29
 70
     1
102
RTVSPropertyOp30
 70
     1
102
RTVSPropertyOp31
 70
     1
102
RTVSPropertyOp32
 70
     1
102
RTVSPropertyOp33
 70
     1
102
RTVSPropertyOp34
 70
     1
102
RTVSPropertyOp35
 70
     1
102
RTVSPropertyOp36
 70
     1
102
RTVSPropertyOp37
 70
     1
102
RTVSPropertyOp38
 70
     1
102
RTVSPropertyOp39
 70
     1
102
RTVSPropertyOp40
 70
     1
102
RTVSPropertyOp41
 70
     1
102
RTVSPropertyOp42
 70
     1
102
RTVSPropertyOp43
 70
     1
102
RTVSPropertyOp44
 70
     1
102
RTVSPropertyOp45
 70
     1
102
RTVSPropertyOp46
 70
     1
102
RTVSPropertyOp47
 70
     1
102
RTVSPropertyOp48
 70
     1
102
RTVSPropertyOp49
 70
     1
102
RTVSPropertyOp50
 70
     1
102
RTVSPropertyOp51
 70
     0
102
RTVSPropertyOp52
 70
     0
102
RTVSPropertyOp53
 70
     1
102
RTVSPropertyOp54
 70
     1
102
RTVSPropertyOp55
 70
     1
102
RTVSPropertyOp56
 70
     1
102
RTVSPropertyOp57
 70
     1
102
RTVSPost2010Prop28
280
     0
102
RTVSPost2010PropOp28
 70
     1
102
RTVSPost2010Prop29
280
     1
102
RTVSPost2010PropOp29
 70
     1
102
RTVSPost2010Prop30
280
     1
102
RTVSPost2010PropOp30
 70
     1
102
RTVSPost2010Prop31
280
     0
102
RTVSPost2010PropOp31
 70
     1
102
RTVSPost2010Prop32
280
     0
102
RTVSPost2010PropOp32
 70
     1
102
RTVSPost2010Prop33
280
     0
102
RTVSPost2010PropOp33
 70
     1
102
RTVSPost2010Prop34
280
     0
102
RTVSPost2010PropOp34
 70
     1
102
RTVSPost2010Prop35
280
     0
102
RTVSPost2010PropOp35
 70
     1
102
RTVSPost2010Prop36
280
     0
102
RTVSPost2010PropOp36
 70
     1
102
RTVSPost2010Prop37
 90
       50
102
RTVSPost2010PropOp37
 70
     1
102
RTVSPost2010Prop38
140
0.0
102
RTVSPost2010PropOp38
 70
     1
102
RTVSPost2010Prop39
140
1.0
102
RTVSPost2010PropOp39
 70
     1
102
RTVSPost2010Prop40
 90
        0
102
RTVSPost2010PropOp40
 70
     1
102
RTVSPost2010Prop41ColorIndex
 90
       18
102
RTVSPost2010Prop41ColorRGB
 90
        0
102
RTVSPost2010PropOp41
 70
     1
102
RTVSPost2010Prop42
 90
       50
102
RTVSPost2010PropOp42
 70
     1
102
RTVSPost2010Prop43
 90
        3
102
RTVSPost2010PropOp43
 70
     1
102
RTVSPost2010Prop44ColorIndex
 90
        5
102
RTVSPost2010Prop44ColorRGB
 90
      255
102
RTVSPost2010PropOp44
 70
     1
102
RTVSPost2010Prop45
280
     0
102
RTVSPost2010PropOp45
 70
     1
102
RTVSPost2010Prop46
 90
       50
102
RTVSPost2010PropOp46
 70
     1
102
RTVSPost2010Prop47
 90
       50
102
RTVSPost2010PropOp47
 70
     1
102
RTVSPost2010Prop48
 90
       50
102
RTVSPost2010PropOp48
 70
     1
102
RTVSPost2010Prop49
280
     0
102
RTVSPost2010PropOp49
 70
     1
102
RTVSPost2010Prop50
 90
       50
102
RTVSPost2010PropOp50
 70
     1
102
RTVSPost2010Prop51ColorIndex
 90
      256
102
RTVSPost2010Prop51ColorRGB
 90
-16777216
102
RTVSPost2010PropOp51
 70
     0
102
RTVSPost2010Prop52
140
1.0
102
RTVSPost2010PropOp52
 70
     0
102
RTVSPost2010Prop53
 90
        2
102
RTVSPost2010PropOp53
 70
     1
102
RTVSPost2010Prop54
  1
strokes_ogs.tif
102
RTVSPost2010PropOp54
 70
     1
102
RTVSPost2010Prop55
280
     0
102
RTVSPost2010PropOp55
 70
     1
102
RTVSPost2010Prop56
140
1.0
102
RTVSPost2010PropOp56
 70
     1
102
RTVSPost2010Prop57
140
1.0
102
RTVSPost2010PropOp57
 70
     1
  0
XRECORD
  5
18C
102
{ACAD_REACTORS
330
18B
102
}
330
18B
100
AcDbXrecord
280
     1
102
RTVSPropertyOp0
 70
     1
102
RTVSPropertyOp1
 70
     1
102
RTVSPropertyOp2
 70
     1
102
RTVSPropertyOp3
 70
     1
102
RTVSPropertyOp4
 70
     1
102
RTVSPropertyOp5
 70
     1
102
RTVSPropertyOp6
 70
     1
102
RTVSPropertyOp7
 70
     1
102
RTVSPropertyOp8
 70
     1
102
RTVSPropertyOp9
 70
     1
102
RTVSPropertyOp10
 70
     1
102
RTVSPropertyOp11
 70
     1
102
RTVSPropertyOp12
 70
     1
102
RTVSPropertyOp13
 70
     1
102
RTVSPropertyOp14
 70
     1
102
RTVSPropertyOp15
 70
     1
102
RTVSPropertyOp16
 70
     1
102
RTVSPropertyOp17
 70
     1
102
RTVSPropertyOp18
 70
     1
102
RTVSPropertyOp19
 70
     1
102
RTVSPropertyOp20
 70
     1
102
RTVSPropertyOp21
 70
     1
102
RTVSPropertyOp22
 70
     1
102
RTVSPropertyOp23
 70
     1
102
RTVSPropertyOp24
 70
     1
102
RTVSPropertyOp25
 70
     1
102
RTVSPropertyOp26
 70
     1
102
RTVSPropertyOp27
 70
     1
102
RTVSPropertyOp28
 70
     1
102
RTVSPropertyOp29
 70
     1
102
RTVSPropertyOp30
 70
     1
102
RTVSPropertyOp31
 70
     1
102
RTVSPropertyOp32
 70
     1
102
RTVSPropertyOp33
 70
     1
102
RTVSPropertyOp34
 70
     1
102
RTVSPropertyOp35
 70
     1
102
RTVSPropertyOp36
 70
     1
102
RTVSPropertyOp37
 70
     1
102
RTVSPropertyOp38
 70
     1
102
RTVSPropertyOp39
 70
     1
102
RTVSPropertyOp40
 70
     1
102
RTVSPropertyOp41
 70
     1
102
RTVSPropertyOp42
 70
     1
102
RTVSPropertyOp43
 70
     1
102
RTVSPropertyOp44
 70
     1
102
RTVSPropertyOp45
 70
     1
102
RTVSPropertyOp46
 70
     1
102
RTVSPropertyOp47
 70
     1
102
RTVSPropertyOp48
 70
     1
102
RTVSPropertyOp49
 70
     1
102
RTVSPropertyOp50
 70
     1
102
RTVSPropertyOp51
 70
     0
102
RTVSPropertyOp52
 70
     0
102
RTVSPropertyOp53
 70
     1
102
RTVSPropertyOp54
 70
     1
102
RTVSPropertyOp55
 70
     1
102
RTVSPropertyOp56
 70
     1
102
RTVSPropertyOp57
 70
     1
102
RTVSPost2010Prop28
280
     0
102
RTVSPost2010PropOp28
 70
     1
102
RTVSPost2010Prop29
280
     1
102
RTVSPost2010PropOp29
 70
     1
102
RTVSPost2010Prop30
280
     1
102
RTVSPost2010PropOp30
 70
     1
102
RTVSPost2010Prop31
280
     0
102
RTVSPost2010PropOp31
 70
     1
102
RTVSPost2010Prop32
280
     0
102
RTVSPost2010PropOp32
 70
     1
102
RTVSPost2010Prop33
280
     0
102
RTVSPost2010PropOp33
 70
     1
102
RTVSPost2010Prop34
280
     0
102
RTVSPost2010PropOp34
 70
     1
102
RTVSPost2010Prop35
280
     0
102
RTVSPost2010PropOp35
 70
     1
102
RTVSPost2010Prop36
280
     0
102
RTVSPost2010PropOp36
 70
     1
102
RTVSPost2010Prop37
 90
       50
102
RTVSPost2010PropOp37
 70
     1
102
RTVSPost2010Prop38
140
0.0
102
RTVSPost2010PropOp38
 70
     1
102
RTVSPost2010Prop39
140
1.0
102
RTVSPost2010PropOp39
 70
     1
102
RTVSPost2010Prop40
 90
        0
102
RTVSPost2010PropOp40
 70
     1
102
RTVSPost2010Prop41ColorIndex
 90
       18
102
RTVSPost2010Prop41ColorRGB
 90
        0
102
RTVSPost2010PropOp41
 70
     1
102
RTVSPost2010Prop42
 90
       50
102
RTVSPost2010PropOp42
 70
     1
102
RTVSPost2010Prop43
 90
        3
102
RTVSPost2010PropOp43
 70
     1
102
RTVSPost2010Prop44ColorIndex
 90
        5
102
RTVSPost2010Prop44ColorRGB
 90
      255
102
RTVSPost2010PropOp44
 70
     1
102
RTVSPost2010Prop45
280
     0
102
RTVSPost2010PropOp45
 70
     1
102
RTVSPost2010Prop46
 90
       50
102
RTVSPost2010PropOp46
 70
     1
102
RTVSPost2010Prop47
 90
       50
102
RTVSPost2010PropOp47
 70
     1
102
RTVSPost2010Prop48
 90
       50
102
RTVSPost2010PropOp48
 70
     1
102
RTVSPost2010Prop49
280
     0
102
RTVSPost2010PropOp49
 70
     1
102
RTVSPost2010Prop50
 90
       50
102
RTVSPost2010PropOp50
 70
     1
102
RTVSPost2010Prop51ColorIndex
 90
      256
102
RTVSPost2010Prop51ColorRGB
 90
-16777216
102
RTVSPost2010PropOp51
 70
     0
102
RTVSPost2010Prop52
140
1.0
102
RTVSPost2010PropOp52
 70
     0
102
RTVSPost2010Prop53
 90
        2
102
RTVSPost2010PropOp53
 70
     1
102
RTVSPost2010Prop54
  1
strokes_ogs.tif
102
RTVSPost2010PropOp54
 70
     1
102
RTVSPost2010Prop55
280
     0
102
RTVSPost2010PropOp55
 70
     1
102
RTVSPost2010Prop56
140
1.0
102
RTVSPost2010PropOp56
 70
     1
102
RTVSPost2010Prop57
140
1.0
102
RTVSPost2010PropOp57
 70
     1
  0
XRECORD
  5
18E
102
{ACAD_REACTORS
330
18D
102
}
330
18D
100
AcDbXrecord
280
     1
102
RTVSPropertyOp0
 70
     1
102
RTVSPropertyOp1
 70
     1
102
RTVSPropertyOp2
 70
     1
102
RTVSPropertyOp3
 70
     1
102
RTVSPropertyOp4
 70
     1
102
RTVSPropertyOp5
 70
     1
102
RTVSPropertyOp6
 70
     1
102
RTVSPropertyOp7
 70
     1
102
RTVSPropertyOp8
 70
     1
102
RTVSPropertyOp9
 70
     1
102
RTVSPropertyOp10
 70
     1
102
RTVSPropertyOp11
 70
     1
102
RTVSPropertyOp12
 70
     1
102
RTVSPropertyOp13
 70
     1
102
RTVSPropertyOp14
 70
     1
102
RTVSPropertyOp15
 70
     1
102
RTVSPropertyOp16
 70
     1
102
RTVSPropertyOp17
 70
     1
102
RTVSPropertyOp18
 70
     1
102
RTVSPropertyOp19
 70
     1
102
RTVSPropertyOp20
 70
     1
102
RTVSPropertyOp21
 70
     1
102
RTVSPropertyOp22
 70
     1
102
RTVSPropertyOp23
 70
     1
102
RTVSPropertyOp24
 70
     1
102
RTVSPropertyOp25
 70
     1
102
RTVSPropertyOp26
 70
     1
102
RTVSPropertyOp27
 70
     1
102
RTVSPropertyOp28
 70
     1
102
RTVSPropertyOp29
 70
     1
102
RTVSPropertyOp30
 70
     1
102
RTVSPropertyOp31
 70
     1
102
RTVSPropertyOp32
 70
     1
102
RTVSPropertyOp33
 70
     1
102
RTVSPropertyOp34
 70
     1
102
RTVSPropertyOp35
 70
     1
102
RTVSPropertyOp36
 70
     1
102
RTVSPropertyOp37
 70
     1
102
RTVSPropertyOp38
 70
     1
102
RTVSPropertyOp39
 70
     1
102
RTVSPropertyOp40
 70
     1
102
RTVSPropertyOp41
 70
     1
102
RTVSPropertyOp42
 70
     1
102
RTVSPropertyOp43
 70
     1
102
RTVSPropertyOp44
 70
     1
102
RTVSPropertyOp45
 70
     1
102
RTVSPropertyOp46
 70
     1
102
RTVSPropertyOp47
 70
     1
102
RTVSPropertyOp48
 70
     1
102
RTVSPropertyOp49
 70
     1
102
RTVSPropertyOp50
 70
     1
102
RTVSPropertyOp51
 70
     0
102
RTVSPropertyOp52
 70
     0
102
RTVSPropertyOp53
 70
     1
102
RTVSPropertyOp54
 70
     1
102
RTVSPropertyOp55
 70
     1
102
RTVSPropertyOp56
 70
     1
102
RTVSPropertyOp57
 70
     1
102
RTVSPost2010Prop28
280
     0
102
RTVSPost2010PropOp28
 70
     1
102
RTVSPost2010Prop29
280
     1
102
RTVSPost2010PropOp29
 70
     1
102
RTVSPost2010Prop30
280
     1
102
RTVSPost2010PropOp30
 70
     1
102
RTVSPost2010Prop31
280
     0
102
RTVSPost2010PropOp31
 70
     1
102
RTVSPost2010Prop32
280
     0
102
RTVSPost2010PropOp32
 70
     1
102
RTVSPost2010Prop33
280
     0
102
RTVSPost2010PropOp33
 70
     1
102
RTVSPost2010Prop34
280
     0
102
RTVSPost2010PropOp34
 70
     1
102
RTVSPost2010Prop35
280
     0
102
RTVSPost2010PropOp35
 70
     1
102
RTVSPost2010Prop36
280
     0
102
RTVSPost2010PropOp36
 70
     1
102
RTVSPost2010Prop37
 90
       50
102
RTVSPost2010PropOp37
 70
     1
102
RTVSPost2010Prop38
140
0.0
102
RTVSPost2010PropOp38
 70
     1
102
RTVSPost2010Prop39
140
1.0
102
RTVSPost2010PropOp39
 70
     1
102
RTVSPost2010Prop40
 90
        0
102
RTVSPost2010PropOp40
 70
     1
102
RTVSPost2010Prop41ColorIndex
 90
       18
102
RTVSPost2010Prop41ColorRGB
 90
        0
102
RTVSPost2010PropOp41
 70
     1
102
RTVSPost2010Prop42
 90
       50
102
RTVSPost2010PropOp42
 70
     1
102
RTVSPost2010Prop43
 90
        3
102
RTVSPost2010PropOp43
 70
     1
102
RTVSPost2010Prop44ColorIndex
 90
        5
102
RTVSPost2010Prop44ColorRGB
 90
      255
102
RTVSPost2010PropOp44
 70
     1
102
RTVSPost2010Prop45
280
     0
102
RTVSPost2010PropOp45
 70
     1
102
RTVSPost2010Prop46
 90
       50
102
RTVSPost2010PropOp46
 70
     1
102
RTVSPost2010Prop47
 90
       50
102
RTVSPost2010PropOp47
 70
     1
102
RTVSPost2010Prop48
 90
       50
102
RTVSPost2010PropOp48
 70
     1
102
RTVSPost2010Prop49
280
     0
102
RTVSPost2010PropOp49
 70
     1
102
RTVSPost2010Prop50
 90
       50
102
RTVSPost2010PropOp50
 70
     1
102
RTVSPost2010Prop51ColorIndex
 90
      256
102
RTVSPost2010Prop51ColorRGB
 90
-16777216
102
RTVSPost2010PropOp51
 70
     0
102
RTVSPost2010Prop52
140
1.0
102
RTVSPost2010PropOp52
 70
     0
102
RTVSPost2010Prop53
 90
        2
102
RTVSPost2010PropOp53
 70
     1
102
RTVSPost2010Prop54
  1
strokes_ogs.tif
102
RTVSPost2010PropOp54
 70
     1
102
RTVSPost2010Prop55
280
     0
102
RTVSPost2010PropOp55
 70
     1
102
RTVSPost2010Prop56
140
1.0
102
RTVSPost2010PropOp56
 70
     1
102
RTVSPost2010Prop57
140
1.0
102
RTVSPost2010PropOp57
 70
     1
  0
XRECORD
  5
19E
102
{ACAD_REACTORS
330
19D
102
}
330
19D
100
AcDbXrecord
280
     1
102
RTVSPropertyOp0
 70
     0
102
RTVSPropertyOp1
 70
     0
102
RTVSPropertyOp2
 70
     0
102
RTVSPropertyOp3
 70
     0
102
RTVSPropertyOp4
 70
     0
102
RTVSPropertyOp5
 70
     0
102
RTVSPropertyOp6
 70
     0
102
RTVSPropertyOp7
 70
     0
102
RTVSPropertyOp8
 70
     0
102
RTVSPropertyOp9
 70
     0
102
RTVSPropertyOp10
 70
     0
102
RTVSPropertyOp11
 70
     0
102
RTVSPropertyOp12
 70
     0
102
RTVSPropertyOp13
 70
     0
102
RTVSPropertyOp14
 70
     2
102
RTVSPropertyOp15
 70
     0
102
RTVSPropertyOp16
 70
     0
102
RTVSPropertyOp17
 70
     0
102
RTVSPropertyOp18
 70
     0
102
RTVSPropertyOp19
 70
     0
102
RTVSPropertyOp20
 70
     0
102
RTVSPropertyOp21
 70
     0
102
RTVSPropertyOp22
 70
     0
102
RTVSPropertyOp23
 70
     0
102
RTVSPropertyOp24
 70
     0
102
RTVSPropertyOp25
 70
     0
102
RTVSPropertyOp26
 70
     0
102
RTVSPropertyOp27
 70
     0
102
RTVSPropertyOp28
 70
     0
102
RTVSPropertyOp29
 70
     0
102
RTVSPropertyOp30
 70
     0
102
RTVSPropertyOp31
 70
     0
102
RTVSPropertyOp32
 70
     0
102
RTVSPropertyOp33
 70
     0
102
RTVSPropertyOp34
 70
     0
102
RTVSPropertyOp35
 70
     0
102
RTVSPropertyOp36
 70
     0
102
RTVSPropertyOp37
 70
     0
102
RTVSPropertyOp38
 70
     0
102
RTVSPropertyOp39
 70
     0
102
RTVSPropertyOp40
 70
     0
102
RTVSPropertyOp41
 70
     0
102
RTVSPropertyOp42
 70
     0
102
RTVSPropertyOp43
 70
     0
102
RTVSPropertyOp44
 70
     0
102
RTVSPropertyOp45
 70
     0
102
RTVSPropertyOp46
 70
     0
102
RTVSPropertyOp47
 70
     0
102
RTVSPropertyOp48
 70
     0
102
RTVSPropertyOp49
 70
     0
102
RTVSPropertyOp50
 70
     0
102
RTVSPropertyOp51
 70
     0
102
RTVSPropertyOp52
 70
     0
102
RTVSPropertyOp53
 70
     0
102
RTVSPropertyOp54
 70
     0
102
RTVSPropertyOp55
 70
     0
102
RTVSPropertyOp56
 70
     0
102
RTVSPropertyOp57
 70
     0
102
RTVSPost2010Prop28
280
     0
102
RTVSPost2010PropOp28
 70
     0
102
RTVSPost2010Prop29
280
     1
102
RTVSPost2010PropOp29
 70
     0
102
RTVSPost2010Prop30
280
     1
102
RTVSPost2010PropOp30
 70
     0
102
RTVSPost2010Prop31
280
     0
102
RTVSPost2010PropOp31
 70
     0
102
RTVSPost2010Prop32
280
     0
102
RTVSPost2010PropOp32
 70
     0
102
RTVSPost2010Prop33
280
     0
102
RTVSPost2010PropOp33
 70
     0
102
RTVSPost2010Prop34
280
     0
102
RTVSPost2010PropOp34
 70
     0
102
RTVSPost2010Prop35
280
     0
102
RTVSPost2010PropOp35
 70
     0
102
RTVSPost2010Prop36
280
     0
102
RTVSPost2010PropOp36
 70
     0
102
RTVSPost2010Prop37
 90
       50
102
RTVSPost2010PropOp37
 70
     0
102
RTVSPost2010Prop38
140
0.0
102
RTVSPost2010PropOp38
 70
     0
102
RTVSPost2010Prop39
140
1.0
102
RTVSPost2010PropOp39
 70
     0
102
RTVSPost2010Prop40
 90
        0
102
RTVSPost2010PropOp40
 70
     0
102
RTVSPost2010Prop41ColorIndex
 90
       18
102
RTVSPost2010Prop41ColorRGB
 90
        0
102
RTVSPost2010PropOp41
 70
     0
102
RTVSPost2010Prop42
 90
       50
102
RTVSPost2010PropOp42
 70
     0
102
RTVSPost2010Prop43
 90
        3
102
RTVSPost2010PropOp43
 70
     0
102
RTVSPost2010Prop44ColorIndex
 90
        5
102
RTVSPost2010Prop44ColorRGB
 90
      255
102
RTVSPost2010PropOp44
 70
     0
102
RTVSPost2010Prop45
280
     0
102
RTVSPost2010PropOp45
 70
     0
102
RTVSPost2010Prop46
 90
       50
102
RTVSPost2010PropOp46
 70
     0
102
RTVSPost2010Prop47
 90
       50
102
RTVSPost2010PropOp47
 70
     0
102
RTVSPost2010Prop48
 90
       50
102
RTVSPost2010PropOp48
 70
     0
102
RTVSPost2010Prop49
280
     0
102
RTVSPost2010PropOp49
 70
     0
102
RTVSPost2010Prop50
 90
       50
102
RTVSPost2010PropOp50
 70
     0
102
RTVSPost2010Prop51ColorIndex
 90
      256
102
RTVSPost2010Prop51ColorRGB
 90
-16777216
102
RTVSPost2010PropOp51
 70
     0
102
RTVSPost2010Prop52
140
1.0
102
RTVSPost2010PropOp52
 70
     0
102
RTVSPost2010Prop53
 90
        2
102
RTVSPost2010PropOp53
 70
     0
102
RTVSPost2010Prop54
  1
strokes_ogs.tif
102
RTVSPost2010PropOp54
 70
     0
102
RTVSPost2010Prop55
280
     0
102
RTVSPost2010PropOp55
 70
     0
102
RTVSPost2010Prop56
140
1.0
102
RTVSPost2010PropOp56
 70
     0
102
RTVSPost2010Prop57
140
1.0
102
RTVSPost2010PropOp57
 70
     0
  0
XRECORD
  5
196
102
{ACAD_REACTORS
330
195
102
}
330
195
100
AcDbXrecord
280
     1
102
RTVSPropertyOp0
 70
     1
102
RTVSPropertyOp1
 70
     1
102
RTVSPropertyOp2
 70
     1
102
RTVSPropertyOp3
 70
     1
102
RTVSPropertyOp4
 70
     1
102
RTVSPropertyOp5
 70
     1
102
RTVSPropertyOp6
 70
     1
102
RTVSPropertyOp7
 70
     1
102
RTVSPropertyOp8
 70
     1
102
RTVSPropertyOp9
 70
     1
102
RTVSPropertyOp10
 70
     1
102
RTVSPropertyOp11
 70
     1
102
RTVSPropertyOp12
 70
     1
102
RTVSPropertyOp13
 70
     1
102
RTVSPropertyOp14
 70
     1
102
RTVSPropertyOp15
 70
     1
102
RTVSPropertyOp16
 70
     1
102
RTVSPropertyOp17
 70
     1
102
RTVSPropertyOp18
 70
     1
102
RTVSPropertyOp19
 70
     1
102
RTVSPropertyOp20
 70
     1
102
RTVSPropertyOp21
 70
     1
102
RTVSPropertyOp22
 70
     1
102
RTVSPropertyOp23
 70
     1
102
RTVSPropertyOp24
 70
     1
102
RTVSPropertyOp25
 70
     1
102
RTVSPropertyOp26
 70
     1
102
RTVSPropertyOp27
 70
     1
102
RTVSPropertyOp28
 70
     1
102
RTVSPropertyOp29
 70
     1
102
RTVSPropertyOp30
 70
     1
102
RTVSPropertyOp31
 70
     1
102
RTVSPropertyOp32
 70
     1
102
RTVSPropertyOp33
 70
     1
102
RTVSPropertyOp34
 70
     1
102
RTVSPropertyOp35
 70
     1
102
RTVSPropertyOp36
 70
     1
102
RTVSPropertyOp37
 70
     1
102
RTVSPropertyOp38
 70
     1
102
RTVSPropertyOp39
 70
     1
102
RTVSPropertyOp40
 70
     1
102
RTVSPropertyOp41
 70
     1
102
RTVSPropertyOp42
 70
     1
102
RTVSPropertyOp43
 70
     1
102
RTVSPropertyOp44
 70
     1
102
RTVSPropertyOp45
 70
     1
102
RTVSPropertyOp46
 70
     1
102
RTVSPropertyOp47
 70
     1
102
RTVSPropertyOp48
 70
     1
102
RTVSPropertyOp49
 70
     1
102
RTVSPropertyOp50
 70
     1
102
RTVSPropertyOp51
 70
     0
102
RTVSPropertyOp52
 70
     0
102
RTVSPropertyOp53
 70
     1
102
RTVSPropertyOp54
 70
     1
102
RTVSPropertyOp55
 70
     1
102
RTVSPropertyOp56
 70
     1
102
RTVSPropertyOp57
 70
     1
102
RTVSPost2010Prop28
280
     0
102
RTVSPost2010PropOp28
 70
     1
102
RTVSPost2010Prop29
280
     1
102
RTVSPost2010PropOp29
 70
     1
102
RTVSPost2010Prop30
280
     1
102
RTVSPost2010PropOp30
 70
     1
102
RTVSPost2010Prop31
280
     0
102
RTVSPost2010PropOp31
 70
     1
102
RTVSPost2010Prop32
280
     0
102
RTVSPost2010PropOp32
 70
     1
102
RTVSPost2010Prop33
280
     0
102
RTVSPost2010PropOp33
 70
     1
102
RTVSPost2010Prop34
280
     0
102
RTVSPost2010PropOp34
 70
     1
102
RTVSPost2010Prop35
280
     0
102
RTVSPost2010PropOp35
 70
     1
102
RTVSPost2010Prop36
280
     0
102
RTVSPost2010PropOp36
 70
     1
102
RTVSPost2010Prop37
 90
       50
102
RTVSPost2010PropOp37
 70
     1
102
RTVSPost2010Prop38
140
0.0
102
RTVSPost2010PropOp38
 70
     1
102
RTVSPost2010Prop39
140
1.0
102
RTVSPost2010PropOp39
 70
     1
102
RTVSPost2010Prop40
 90
        0
102
RTVSPost2010PropOp40
 70
     1
102
RTVSPost2010Prop41ColorIndex
 90
       18
102
RTVSPost2010Prop41ColorRGB
 90
        0
102
RTVSPost2010PropOp41
 70
     1
102
RTVSPost2010Prop42
 90
       50
102
RTVSPost2010PropOp42
 70
     1
102
RTVSPost2010Prop43
 90
        3
102
RTVSPost2010PropOp43
 70
     1
102
RTVSPost2010Prop44ColorIndex
 90
        5
102
RTVSPost2010Prop44ColorRGB
 90
      255
102
RTVSPost2010PropOp44
 70
     1
102
RTVSPost2010Prop45
280
     0
102
RTVSPost2010PropOp45
 70
     1
102
RTVSPost2010Prop46
 90
       50
102
RTVSPost2010PropOp46
 70
     1
102
RTVSPost2010Prop47
 90
       50
102
RTVSPost2010PropOp47
 70
     1
102
RTVSPost2010Prop48
 90
       50
102
RTVSPost2010PropOp48
 70
     1
102
RTVSPost2010Prop49
280
     0
102
RTVSPost2010PropOp49
 70
     1
102
RTVSPost2010Prop50
 90
       50
102
RTVSPost2010PropOp50
 70
     1
102
RTVSPost2010Prop51ColorIndex
 90
      256
102
RTVSPost2010Prop51ColorRGB
 90
-16777216
102
RTVSPost2010PropOp51
 70
     0
102
RTVSPost2010Prop52
140
1.0
102
RTVSPost2010PropOp52
 70
     0
102
RTVSPost2010Prop53
 90
        2
102
RTVSPost2010PropOp53
 70
     1
102
RTVSPost2010Prop54
  1
strokes_ogs.tif
102
RTVSPost2010PropOp54
 70
     1
102
RTVSPost2010Prop55
280
     0
102
RTVSPost2010PropOp55
 70
     1
102
RTVSPost2010Prop56
140
1.0
102
RTVSPost2010PropOp56
 70
     1
102
RTVSPost2010Prop57
140
1.0
102
RTVSPost2010PropOp57
 70
     1
  0
XRECORD
  5
17A
102
{ACAD_REACTORS
330
179
102
}
330
179
100
AcDbXrecord
280
     1
102
RTVSPropertyOp0
 70
     1
102
RTVSPropertyOp1
 70
     1
102
RTVSPropertyOp2
 70
     1
102
RTVSPropertyOp3
 70
     1
102
RTVSPropertyOp4
 70
     1
102
RTVSPropertyOp5
 70
     1
102
RTVSPropertyOp6
 70
     1
102
RTVSPropertyOp7
 70
     1
102
RTVSPropertyOp8
 70
     1
102
RTVSPropertyOp9
 70
     1
102
RTVSPropertyOp10
 70
     1
102
RTVSPropertyOp11
 70
     1
102
RTVSPropertyOp12
 70
     1
102
RTVSPropertyOp13
 70
     1
102
RTVSPropertyOp14
 70
     1
102
RTVSPropertyOp15
 70
     1
102
RTVSPropertyOp16
 70
     1
102
RTVSPropertyOp17
 70
     1
102
RTVSPropertyOp18
 70
     1
102
RTVSPropertyOp19
 70
     1
102
RTVSPropertyOp20
 70
     1
102
RTVSPropertyOp21
 70
     1
102
RTVSPropertyOp22
 70
     1
102
RTVSPropertyOp23
 70
     1
102
RTVSPropertyOp24
 70
     1
102
RTVSPropertyOp25
 70
     1
102
RTVSPropertyOp26
 70
     1
102
RTVSPropertyOp27
 70
     1
102
RTVSPropertyOp28
 70
     1
102
RTVSPropertyOp29
 70
     1
102
RTVSPropertyOp30
 70
     1
102
RTVSPropertyOp31
 70
     1
102
RTVSPropertyOp32
 70
     1
102
RTVSPropertyOp33
 70
     1
102
RTVSPropertyOp34
 70
     1
102
RTVSPropertyOp35
 70
     1
102
RTVSPropertyOp36
 70
     1
102
RTVSPropertyOp37
 70
     1
102
RTVSPropertyOp38
 70
     1
102
RTVSPropertyOp39
 70
     1
102
RTVSPropertyOp40
 70
     1
102
RTVSPropertyOp41
 70
     1
102
RTVSPropertyOp42
 70
     1
102
RTVSPropertyOp43
 70
     1
102
RTVSPropertyOp44
 70
     1
102
RTVSPropertyOp45
 70
     1
102
RTVSPropertyOp46
 70
     1
102
RTVSPropertyOp47
 70
     1
102
RTVSPropertyOp48
 70
     1
102
RTVSPropertyOp49
 70
     1
102
RTVSPropertyOp50
 70
     1
102
RTVSPropertyOp51
 70
     0
102
RTVSPropertyOp52
 70
     0
102
RTVSPropertyOp53
 70
     1
102
RTVSPropertyOp54
 70
     1
102
RTVSPropertyOp55
 70
     1
102
RTVSPropertyOp56
 70
     1
102
RTVSPropertyOp57
 70
     1
102
RTVSPost2010Prop28
280
     0
102
RTVSPost2010PropOp28
 70
     1
102
RTVSPost2010Prop29
280
     1
102
RTVSPost2010PropOp29
 70
     1
102
RTVSPost2010Prop30
280
     1
102
RTVSPost2010PropOp30
 70
     1
102
RTVSPost2010Prop31
280
     0
102
RTVSPost2010PropOp31
 70
     1
102
RTVSPost2010Prop32
280
     0
102
RTVSPost2010PropOp32
 70
     1
102
RTVSPost2010Prop33
280
     0
102
RTVSPost2010PropOp33
 70
     1
102
RTVSPost2010Prop34
280
     0
102
RTVSPost2010PropOp34
 70
     1
102
RTVSPost2010Prop35
280
     0
102
RTVSPost2010PropOp35
 70
     1
102
RTVSPost2010Prop36
280
     0
102
RTVSPost2010PropOp36
 70
     1
102
RTVSPost2010Prop37
 90
       50
102
RTVSPost2010PropOp37
 70
     1
102
RTVSPost2010Prop38
140
0.0
102
RTVSPost2010PropOp38
 70
     1
102
RTVSPost2010Prop39
140
1.0
102
RTVSPost2010PropOp39
 70
     1
102
RTVSPost2010Prop40
 90
        0
102
RTVSPost2010PropOp40
 70
     1
102
RTVSPost2010Prop41ColorIndex
 90
       18
102
RTVSPost2010Prop41ColorRGB
 90
        0
102
RTVSPost2010PropOp41
 70
     1
102
RTVSPost2010Prop42
 90
       50
102
RTVSPost2010PropOp42
 70
     1
102
RTVSPost2010Prop43
 90
        3
102
RTVSPost2010PropOp43
 70
     1
102
RTVSPost2010Prop44ColorIndex
 90
        5
102
RTVSPost2010Prop44ColorRGB
 90
      255
102
RTVSPost2010PropOp44
 70
     1
102
RTVSPost2010Prop45
280
     0
102
RTVSPost2010PropOp45
 70
     1
102
RTVSPost2010Prop46
 90
       50
102
RTVSPost2010PropOp46
 70
     1
102
RTVSPost2010Prop47
 90
       50
102
RTVSPost2010PropOp47
 70
     1
102
RTVSPost2010Prop48
 90
       50
102
RTVSPost2010PropOp48
 70
     1
102
RTVSPost2010Prop49
280
     0
102
RTVSPost2010PropOp49
 70
     1
102
RTVSPost2010Prop50
 90
       50
102
RTVSPost2010PropOp50
 70
     1
102
RTVSPost2010Prop51ColorIndex
 90
      256
102
RTVSPost2010Prop51ColorRGB
 90
-16777216
102
RTVSPost2010PropOp51
 70
     0
102
RTVSPost2010Prop52
140
1.0
102
RTVSPost2010PropOp52
 70
     0
102
RTVSPost2010Prop53
 90
        2
102
RTVSPost2010PropOp53
 70
     1
102
RTVSPost2010Prop54
  1
strokes_ogs.tif
102
RTVSPost2010PropOp54
 70
     1
102
RTVSPost2010Prop55
280
     0
102
RTVSPost2010PropOp55
 70
     1
102
RTVSPost2010Prop56
140
1.0
102
RTVSPost2010PropOp56
 70
     1
102
RTVSPost2010Prop57
140
1.0
102
RTVSPost2010PropOp57
 70
     1
  0
XRECORD
  5
17C
102
{ACAD_REACTORS
330
17B
102
}
330
17B
100
AcDbXrecord
280
     1
102
RTVSPropertyOp0
 70
     1
102
RTVSPropertyOp1
 70
     1
102
RTVSPropertyOp2
 70
     1
102
RTVSPropertyOp3
 70
     1
102
RTVSPropertyOp4
 70
     1
102
RTVSPropertyOp5
 70
     1
102
RTVSPropertyOp6
 70
     1
102
RTVSPropertyOp7
 70
     1
102
RTVSPropertyOp8
 70
     1
102
RTVSPropertyOp9
 70
     1
102
RTVSPropertyOp10
 70
     1
102
RTVSPropertyOp11
 70
     1
102
RTVSPropertyOp12
 70
     1
102
RTVSPropertyOp13
 70
     1
102
RTVSPropertyOp14
 70
     1
102
RTVSPropertyOp15
 70
     1
102
RTVSPropertyOp16
 70
     1
102
RTVSPropertyOp17
 70
     1
102
RTVSPropertyOp18
 70
     1
102
RTVSPropertyOp19
 70
     1
102
RTVSPropertyOp20
 70
     1
102
RTVSPropertyOp21
 70
     1
102
RTVSPropertyOp22
 70
     1
102
RTVSPropertyOp23
 70
     1
102
RTVSPropertyOp24
 70
     1
102
RTVSPropertyOp25
 70
     1
102
RTVSPropertyOp26
 70
     1
102
RTVSPropertyOp27
 70
     1
102
RTVSPropertyOp28
 70
     1
102
RTVSPropertyOp29
 70
     1
102
RTVSPropertyOp30
 70
     1
102
RTVSPropertyOp31
 70
     1
102
RTVSPropertyOp32
 70
     1
102
RTVSPropertyOp33
 70
     1
102
RTVSPropertyOp34
 70
     1
102
RTVSPropertyOp35
 70
     1
102
RTVSPropertyOp36
 70
     1
102
RTVSPropertyOp37
 70
     1
102
RTVSPropertyOp38
 70
     1
102
RTVSPropertyOp39
 70
     1
102
RTVSPropertyOp40
 70
     1
102
RTVSPropertyOp41
 70
     1
102
RTVSPropertyOp42
 70
     1
102
RTVSPropertyOp43
 70
     1
102
RTVSPropertyOp44
 70
     1
102
RTVSPropertyOp45
 70
     1
102
RTVSPropertyOp46
 70
     1
102
RTVSPropertyOp47
 70
     1
102
RTVSPropertyOp48
 70
     1
102
RTVSPropertyOp49
 70
     1
102
RTVSPropertyOp50
 70
     1
102
RTVSPropertyOp51
 70
     0
102
RTVSPropertyOp52
 70
     0
102
RTVSPropertyOp53
 70
     1
102
RTVSPropertyOp54
 70
     1
102
RTVSPropertyOp55
 70
     1
102
RTVSPropertyOp56
 70
     1
102
RTVSPropertyOp57
 70
     1
102
RTVSPost2010Prop28
280
     0
102
RTVSPost2010PropOp28
 70
     1
102
RTVSPost2010Prop29
280
     1
102
RTVSPost2010PropOp29
 70
     1
102
RTVSPost2010Prop30
280
     1
102
RTVSPost2010PropOp30
 70
     1
102
RTVSPost2010Prop31
280
     0
102
RTVSPost2010PropOp31
 70
     1
102
RTVSPost2010Prop32
280
     0
102
RTVSPost2010PropOp32
 70
     1
102
RTVSPost2010Prop33
280
     0
102
RTVSPost2010PropOp33
 70
     1
102
RTVSPost2010Prop34
280
     0
102
RTVSPost2010PropOp34
 70
     1
102
RTVSPost2010Prop35
280
     0
102
RTVSPost2010PropOp35
 70
     1
102
RTVSPost2010Prop36
280
     0
102
RTVSPost2010PropOp36
 70
     1
102
RTVSPost2010Prop37
 90
       50
102
RTVSPost2010PropOp37
 70
     1
102
RTVSPost2010Prop38
140
0.0
102
RTVSPost2010PropOp38
 70
     1
102
RTVSPost2010Prop39
140
1.0
102
RTVSPost2010PropOp39
 70
     1
102
RTVSPost2010Prop40
 90
        0
102
RTVSPost2010PropOp40
 70
     1
102
RTVSPost2010Prop41ColorIndex
 90
       18
102
RTVSPost2010Prop41ColorRGB
 90
        0
102
RTVSPost2010PropOp41
 70
     1
102
RTVSPost2010Prop42
 90
       50
102
RTVSPost2010PropOp42
 70
     1
102
RTVSPost2010Prop43
 90
        3
102
RTVSPost2010PropOp43
 70
     1
102
RTVSPost2010Prop44ColorIndex
 90
        5
102
RTVSPost2010Prop44ColorRGB
 90
      255
102
RTVSPost2010PropOp44
 70
     1
102
RTVSPost2010Prop45
280
     0
102
RTVSPost2010PropOp45
 70
     1
102
RTVSPost2010Prop46
 90
       50
102
RTVSPost2010PropOp46
 70
     1
102
RTVSPost2010Prop47
 90
       50
102
RTVSPost2010PropOp47
 70
     1
102
RTVSPost2010Prop48
 90
       50
102
RTVSPost2010PropOp48
 70
     1
102
RTVSPost2010Prop49
280
     0
102
RTVSPost2010PropOp49
 70
     1
102
RTVSPost2010Prop50
 90
       50
102
RTVSPost2010PropOp50
 70
     1
102
RTVSPost2010Prop51ColorIndex
 90
      256
102
RTVSPost2010Prop51ColorRGB
 90
-16777216
102
RTVSPost2010PropOp51
 70
     0
102
RTVSPost2010Prop52
140
1.0
102
RTVSPost2010PropOp52
 70
     0
102
RTVSPost2010Prop53
 90
        2
102
RTVSPost2010PropOp53
 70
     1
102
RTVSPost2010Prop54
  1
strokes_ogs.tif
102
RTVSPost2010PropOp54
 70
     1
102
RTVSPost2010Prop55
280
     0
102
RTVSPost2010PropOp55
 70
     1
102
RTVSPost2010Prop56
140
1.0
102
RTVSPost2010PropOp56
 70
     1
102
RTVSPost2010Prop57
140
1.0
102
RTVSPost2010PropOp57
 70
     1
  0
XRECORD
  5
17E
102
{ACAD_REACTORS
330
17D
102
}
330
17D
100
AcDbXrecord
280
     1
102
RTVSPropertyOp0
 70
     1
102
RTVSPropertyOp1
 70
     1
102
RTVSPropertyOp2
 70
     1
102
RTVSPropertyOp3
 70
     1
102
RTVSPropertyOp4
 70
     1
102
RTVSPropertyOp5
 70
     1
102
RTVSPropertyOp6
 70
     1
102
RTVSPropertyOp7
 70
     1
102
RTVSPropertyOp8
 70
     1
102
RTVSPropertyOp9
 70
     1
102
RTVSPropertyOp10
 70
     1
102
RTVSPropertyOp11
 70
     1
102
RTVSPropertyOp12
 70
     1
102
RTVSPropertyOp13
 70
     1
102
RTVSPropertyOp14
 70
     1
102
RTVSPropertyOp15
 70
     1
102
RTVSPropertyOp16
 70
     1
102
RTVSPropertyOp17
 70
     1
102
RTVSPropertyOp18
 70
     1
102
RTVSPropertyOp19
 70
     1
102
RTVSPropertyOp20
 70
     1
102
RTVSPropertyOp21
 70
     1
102
RTVSPropertyOp22
 70
     1
102
RTVSPropertyOp23
 70
     1
102
RTVSPropertyOp24
 70
     1
102
RTVSPropertyOp25
 70
     1
102
RTVSPropertyOp26
 70
     1
102
RTVSPropertyOp27
 70
     1
102
RTVSPropertyOp28
 70
     1
102
RTVSPropertyOp29
 70
     1
102
RTVSPropertyOp30
 70
     1
102
RTVSPropertyOp31
 70
     1
102
RTVSPropertyOp32
 70
     1
102
RTVSPropertyOp33
 70
     1
102
RTVSPropertyOp34
 70
     1
102
RTVSPropertyOp35
 70
     1
102
RTVSPropertyOp36
 70
     1
102
RTVSPropertyOp37
 70
     1
102
RTVSPropertyOp38
 70
     1
102
RTVSPropertyOp39
 70
     1
102
RTVSPropertyOp40
 70
     1
102
RTVSPropertyOp41
 70
     1
102
RTVSPropertyOp42
 70
     1
102
RTVSPropertyOp43
 70
     1
102
RTVSPropertyOp44
 70
     1
102
RTVSPropertyOp45
 70
     1
102
RTVSPropertyOp46
 70
     1
102
RTVSPropertyOp47
 70
     1
102
RTVSPropertyOp48
 70
     1
102
RTVSPropertyOp49
 70
     1
102
RTVSPropertyOp50
 70
     1
102
RTVSPropertyOp51
 70
     0
102
RTVSPropertyOp52
 70
     0
102
RTVSPropertyOp53
 70
     1
102
RTVSPropertyOp54
 70
     1
102
RTVSPropertyOp55
 70
     1
102
RTVSPropertyOp56
 70
     1
102
RTVSPropertyOp57
 70
     1
102
RTVSPost2010Prop28
280
     0
102
RTVSPost2010PropOp28
 70
     1
102
RTVSPost2010Prop29
280
     1
102
RTVSPost2010PropOp29
 70
     1
102
RTVSPost2010Prop30
280
     1
102
RTVSPost2010PropOp30
 70
     1
102
RTVSPost2010Prop31
280
     0
102
RTVSPost2010PropOp31
 70
     1
102
RTVSPost2010Prop32
280
     0
102
RTVSPost2010PropOp32
 70
     1
102
RTVSPost2010Prop33
280
     0
102
RTVSPost2010PropOp33
 70
     1
102
RTVSPost2010Prop34
280
     0
102
RTVSPost2010PropOp34
 70
     1
102
RTVSPost2010Prop35
280
     0
102
RTVSPost2010PropOp35
 70
     1
102
RTVSPost2010Prop36
280
     0
102
RTVSPost2010PropOp36
 70
     1
102
RTVSPost2010Prop37
 90
       50
102
RTVSPost2010PropOp37
 70
     1
102
RTVSPost2010Prop38
140
0.0
102
RTVSPost2010PropOp38
 70
     1
102
RTVSPost2010Prop39
140
1.0
102
RTVSPost2010PropOp39
 70
     1
102
RTVSPost2010Prop40
 90
        0
102
RTVSPost2010PropOp40
 70
     1
102
RTVSPost2010Prop41ColorIndex
 90
       18
102
RTVSPost2010Prop41ColorRGB
 90
        0
102
RTVSPost2010PropOp41
 70
     1
102
RTVSPost2010Prop42
 90
       50
102
RTVSPost2010PropOp42
 70
     1
102
RTVSPost2010Prop43
 90
        3
102
RTVSPost2010PropOp43
 70
     1
102
RTVSPost2010Prop44ColorIndex
 90
        5
102
RTVSPost2010Prop44ColorRGB
 90
      255
102
RTVSPost2010PropOp44
 70
     1
102
RTVSPost2010Prop45
280
     0
102
RTVSPost2010PropOp45
 70
     1
102
RTVSPost2010Prop46
 90
       50
102
RTVSPost2010PropOp46
 70
     1
102
RTVSPost2010Prop47
 90
       50
102
RTVSPost2010PropOp47
 70
     1
102
RTVSPost2010Prop48
 90
       50
102
RTVSPost2010PropOp48
 70
     1
102
RTVSPost2010Prop49
280
     0
102
RTVSPost2010PropOp49
 70
     1
102
RTVSPost2010Prop50
 90
       50
102
RTVSPost2010PropOp50
 70
     1
102
RTVSPost2010Prop51ColorIndex
 90
      256
102
RTVSPost2010Prop51ColorRGB
 90
-16777216
102
RTVSPost2010PropOp51
 70
     0
102
RTVSPost2010Prop52
140
1.0
102
RTVSPost2010PropOp52
 70
     0
102
RTVSPost2010Prop53
 90
        2
102
RTVSPost2010PropOp53
 70
     1
102
RTVSPost2010Prop54
  1
strokes_ogs.tif
102
RTVSPost2010PropOp54
 70
     1
102
RTVSPost2010Prop55
280
     0
102
RTVSPost2010PropOp55
 70
     1
102
RTVSPost2010Prop56
140
1.0
102
RTVSPost2010PropOp56
 70
     1
102
RTVSPost2010Prop57
140
1.0
102
RTVSPost2010PropOp57
 70
     1
  0
XRECORD
  5
180
102
{ACAD_REACTORS
330
17F
102
}
330
17F
100
AcDbXrecord
280
     1
102
RTVSPropertyOp0
 70
     1
102
RTVSPropertyOp1
 70
     1
102
RTVSPropertyOp2
 70
     1
102
RTVSPropertyOp3
 70
     1
102
RTVSPropertyOp4
 70
     1
102
RTVSPropertyOp5
 70
     1
102
RTVSPropertyOp6
 70
     1
102
RTVSPropertyOp7
 70
     1
102
RTVSPropertyOp8
 70
     1
102
RTVSPropertyOp9
 70
     1
102
RTVSPropertyOp10
 70
     1
102
RTVSPropertyOp11
 70
     1
102
RTVSPropertyOp12
 70
     1
102
RTVSPropertyOp13
 70
     1
102
RTVSPropertyOp14
 70
     1
102
RTVSPropertyOp15
 70
     1
102
RTVSPropertyOp16
 70
     1
102
RTVSPropertyOp17
 70
     1
102
RTVSPropertyOp18
 70
     1
102
RTVSPropertyOp19
 70
     1
102
RTVSPropertyOp20
 70
     1
102
RTVSPropertyOp21
 70
     1
102
RTVSPropertyOp22
 70
     1
102
RTVSPropertyOp23
 70
     1
102
RTVSPropertyOp24
 70
     1
102
RTVSPropertyOp25
 70
     1
102
RTVSPropertyOp26
 70
     1
102
RTVSPropertyOp27
 70
     1
102
RTVSPropertyOp28
 70
     1
102
RTVSPropertyOp29
 70
     1
102
RTVSPropertyOp30
 70
     1
102
RTVSPropertyOp31
 70
     1
102
RTVSPropertyOp32
 70
     1
102
RTVSPropertyOp33
 70
     1
102
RTVSPropertyOp34
 70
     1
102
RTVSPropertyOp35
 70
     1
102
RTVSPropertyOp36
 70
     1
102
RTVSPropertyOp37
 70
     1
102
RTVSPropertyOp38
 70
     1
102
RTVSPropertyOp39
 70
     1
102
RTVSPropertyOp40
 70
     1
102
RTVSPropertyOp41
 70
     1
102
RTVSPropertyOp42
 70
     1
102
RTVSPropertyOp43
 70
     1
102
RTVSPropertyOp44
 70
     1
102
RTVSPropertyOp45
 70
     1
102
RTVSPropertyOp46
 70
     1
102
RTVSPropertyOp47
 70
     1
102
RTVSPropertyOp48
 70
     1
102
RTVSPropertyOp49
 70
     1
102
RTVSPropertyOp50
 70
     1
102
RTVSPropertyOp51
 70
     0
102
RTVSPropertyOp52
 70
     0
102
RTVSPropertyOp53
 70
     1
102
RTVSPropertyOp54
 70
     1
102
RTVSPropertyOp55
 70
     1
102
RTVSPropertyOp56
 70
     1
102
RTVSPropertyOp57
 70
     1
102
RTVSPost2010Prop28
280
     0
102
RTVSPost2010PropOp28
 70
     1
102
RTVSPost2010Prop29
280
     1
102
RTVSPost2010PropOp29
 70
     1
102
RTVSPost2010Prop30
280
     1
102
RTVSPost2010PropOp30
 70
     1
102
RTVSPost2010Prop31
280
     0
102
RTVSPost2010PropOp31
 70
     1
102
RTVSPost2010Prop32
280
     0
102
RTVSPost2010PropOp32
 70
     1
102
RTVSPost2010Prop33
280
     0
102
RTVSPost2010PropOp33
 70
     1
102
RTVSPost2010Prop34
280
     0
102
RTVSPost2010PropOp34
 70
     1
102
RTVSPost2010Prop35
280
     0
102
RTVSPost2010PropOp35
 70
     1
102
RTVSPost2010Prop36
280
     0
102
RTVSPost2010PropOp36
 70
     1
102
RTVSPost2010Prop37
 90
       50
102
RTVSPost2010PropOp37
 70
     1
102
RTVSPost2010Prop38
140
0.0
102
RTVSPost2010PropOp38
 70
     1
102
RTVSPost2010Prop39
140
1.0
102
RTVSPost2010PropOp39
 70
     1
102
RTVSPost2010Prop40
 90
        0
102
RTVSPost2010PropOp40
 70
     1
102
RTVSPost2010Prop41ColorIndex
 90
       18
102
RTVSPost2010Prop41ColorRGB
 90
        0
102
RTVSPost2010PropOp41
 70
     1
102
RTVSPost2010Prop42
 90
       50
102
RTVSPost2010PropOp42
 70
     1
102
RTVSPost2010Prop43
 90
        3
102
RTVSPost2010PropOp43
 70
     1
102
RTVSPost2010Prop44ColorIndex
 90
        5
102
RTVSPost2010Prop44ColorRGB
 90
      255
102
RTVSPost2010PropOp44
 70
     1
102
RTVSPost2010Prop45
280
     0
102
RTVSPost2010PropOp45
 70
     1
102
RTVSPost2010Prop46
 90
       50
102
RTVSPost2010PropOp46
 70
     1
102
RTVSPost2010Prop47
 90
       50
102
RTVSPost2010PropOp47
 70
     1
102
RTVSPost2010Prop48
 90
       50
102
RTVSPost2010PropOp48
 70
     1
102
RTVSPost2010Prop49
280
     0
102
RTVSPost2010PropOp49
 70
     1
102
RTVSPost2010Prop50
 90
       50
102
RTVSPost2010PropOp50
 70
     1
102
RTVSPost2010Prop51ColorIndex
 90
      256
102
RTVSPost2010Prop51ColorRGB
 90
-16777216
102
RTVSPost2010PropOp51
 70
     0
102
RTVSPost2010Prop52
140
1.0
102
RTVSPost2010PropOp52
 70
     0
102
RTVSPost2010Prop53
 90
        2
102
RTVSPost2010PropOp53
 70
     1
102
RTVSPost2010Prop54
  1
strokes_ogs.tif
102
RTVSPost2010PropOp54
 70
     1
102
RTVSPost2010Prop55
280
     0
102
RTVSPost2010PropOp55
 70
     1
102
RTVSPost2010Prop56
140
1.0
102
RTVSPost2010PropOp56
 70
     1
102
RTVSPost2010Prop57
140
1.0
102
RTVSPost2010PropOp57
 70
     1
  0
XRECORD
  5
186
102
{ACAD_REACTORS
330
185
102
}
330
185
100
AcDbXrecord
280
     1
102
RTVSPropertyOp0
 70
     1
102
RTVSPropertyOp1
 70
     1
102
RTVSPropertyOp2
 70
     1
102
RTVSPropertyOp3
 70
     1
102
RTVSPropertyOp4
 70
     1
102
RTVSPropertyOp5
 70
     1
102
RTVSPropertyOp6
 70
     1
102
RTVSPropertyOp7
 70
     1
102
RTVSPropertyOp8
 70
     1
102
RTVSPropertyOp9
 70
     1
102
RTVSPropertyOp10
 70
     1
102
RTVSPropertyOp11
 70
     1
102
RTVSPropertyOp12
 70
     1
102
RTVSPropertyOp13
 70
     1
102
RTVSPropertyOp14
 70
     1
102
RTVSPropertyOp15
 70
     1
102
RTVSPropertyOp16
 70
     1
102
RTVSPropertyOp17
 70
     1
102
RTVSPropertyOp18
 70
     1
102
RTVSPropertyOp19
 70
     1
102
RTVSPropertyOp20
 70
     1
102
RTVSPropertyOp21
 70
     1
102
RTVSPropertyOp22
 70
     1
102
RTVSPropertyOp23
 70
     1
102
RTVSPropertyOp24
 70
     1
102
RTVSPropertyOp25
 70
     1
102
RTVSPropertyOp26
 70
     1
102
RTVSPropertyOp27
 70
     1
102
RTVSPropertyOp28
 70
     1
102
RTVSPropertyOp29
 70
     1
102
RTVSPropertyOp30
 70
     1
102
RTVSPropertyOp31
 70
     1
102
RTVSPropertyOp32
 70
     1
102
RTVSPropertyOp33
 70
     1
102
RTVSPropertyOp34
 70
     1
102
RTVSPropertyOp35
 70
     1
102
RTVSPropertyOp36
 70
     1
102
RTVSPropertyOp37
 70
     1
102
RTVSPropertyOp38
 70
     1
102
RTVSPropertyOp39
 70
     1
102
RTVSPropertyOp40
 70
     1
102
RTVSPropertyOp41
 70
     1
102
RTVSPropertyOp42
 70
     1
102
RTVSPropertyOp43
 70
     1
102
RTVSPropertyOp44
 70
     1
102
RTVSPropertyOp45
 70
     1
102
RTVSPropertyOp46
 70
     1
102
RTVSPropertyOp47
 70
     1
102
RTVSPropertyOp48
 70
     1
102
RTVSPropertyOp49
 70
     1
102
RTVSPropertyOp50
 70
     1
102
RTVSPropertyOp51
 70
     0
102
RTVSPropertyOp52
 70
     0
102
RTVSPropertyOp53
 70
     1
102
RTVSPropertyOp54
 70
     1
102
RTVSPropertyOp55
 70
     1
102
RTVSPropertyOp56
 70
     1
102
RTVSPropertyOp57
 70
     1
102
RTVSPost2010Prop28
280
     0
102
RTVSPost2010PropOp28
 70
     1
102
RTVSPost2010Prop29
280
     1
102
RTVSPost2010PropOp29
 70
     1
102
RTVSPost2010Prop30
280
     1
102
RTVSPost2010PropOp30
 70
     1
102
RTVSPost2010Prop31
280
     0
102
RTVSPost2010PropOp31
 70
     1
102
RTVSPost2010Prop32
280
     0
102
RTVSPost2010PropOp32
 70
     1
102
RTVSPost2010Prop33
280
     0
102
RTVSPost2010PropOp33
 70
     1
102
RTVSPost2010Prop34
280
     0
102
RTVSPost2010PropOp34
 70
     1
102
RTVSPost2010Prop35
280
     0
102
RTVSPost2010PropOp35
 70
     1
102
RTVSPost2010Prop36
280
     0
102
RTVSPost2010PropOp36
 70
     1
102
RTVSPost2010Prop37
 90
       50
102
RTVSPost2010PropOp37
 70
     1
102
RTVSPost2010Prop38
140
0.0
102
RTVSPost2010PropOp38
 70
     1
102
RTVSPost2010Prop39
140
1.0
102
RTVSPost2010PropOp39
 70
     1
102
RTVSPost2010Prop40
 90
        0
102
RTVSPost2010PropOp40
 70
     1
102
RTVSPost2010Prop41ColorIndex
 90
       18
102
RTVSPost2010Prop41ColorRGB
 90
        0
102
RTVSPost2010PropOp41
 70
     1
102
RTVSPost2010Prop42
 90
       50
102
RTVSPost2010PropOp42
 70
     1
102
RTVSPost2010Prop43
 90
        3
102
RTVSPost2010PropOp43
 70
     1
102
RTVSPost2010Prop44ColorIndex
 90
        5
102
RTVSPost2010Prop44ColorRGB
 90
      255
102
RTVSPost2010PropOp44
 70
     1
102
RTVSPost2010Prop45
280
     0
102
RTVSPost2010PropOp45
 70
     1
102
RTVSPost2010Prop46
 90
       50
102
RTVSPost2010PropOp46
 70
     1
102
RTVSPost2010Prop47
 90
       50
102
RTVSPost2010PropOp47
 70
     1
102
RTVSPost2010Prop48
 90
       50
102
RTVSPost2010PropOp48
 70
     1
102
RTVSPost2010Prop49
280
     0
102
RTVSPost2010PropOp49
 70
     1
102
RTVSPost2010Prop50
 90
       50
102
RTVSPost2010PropOp50
 70
     1
102
RTVSPost2010Prop51ColorIndex
 90
      256
102
RTVSPost2010Prop51ColorRGB
 90
-16777216
102
RTVSPost2010PropOp51
 70
     0
102
RTVSPost2010Prop52
140
1.0
102
RTVSPost2010PropOp52
 70
     0
102
RTVSPost2010Prop53
 90
        2
102
RTVSPost2010PropOp53
 70
     1
102
RTVSPost2010Prop54
  1
strokes_ogs.tif
102
RTVSPost2010PropOp54
 70
     1
102
RTVSPost2010Prop55
280
     0
102
RTVSPost2010PropOp55
 70
     1
102
RTVSPost2010Prop56
140
1.0
102
RTVSPost2010PropOp56
 70
     1
102
RTVSPost2010Prop57
140
1.0
102
RTVSPost2010PropOp57
 70
     1
  0
XRECORD
  5
19A
102
{ACAD_REACTORS
330
199
102
}
330
199
100
AcDbXrecord
280
     1
102
RTVSPropertyOp0
 70
     0
102
RTVSPropertyOp1
 70
     0
102
RTVSPropertyOp2
 70
     0
102
RTVSPropertyOp3
 70
     0
102
RTVSPropertyOp4
 70
     0
102
RTVSPropertyOp5
 70
     0
102
RTVSPropertyOp6
 70
     0
102
RTVSPropertyOp7
 70
     0
102
RTVSPropertyOp8
 70
     0
102
RTVSPropertyOp9
 70
     0
102
RTVSPropertyOp10
 70
     0
102
RTVSPropertyOp11
 70
     0
102
RTVSPropertyOp12
 70
     0
102
RTVSPropertyOp13
 70
     0
102
RTVSPropertyOp14
 70
     2
102
RTVSPropertyOp15
 70
     0
102
RTVSPropertyOp16
 70
     0
102
RTVSPropertyOp17
 70
     0
102
RTVSPropertyOp18
 70
     0
102
RTVSPropertyOp19
 70
     0
102
RTVSPropertyOp20
 70
     0
102
RTVSPropertyOp21
 70
     0
102
RTVSPropertyOp22
 70
     0
102
RTVSPropertyOp23
 70
     0
102
RTVSPropertyOp24
 70
     0
102
RTVSPropertyOp25
 70
     0
102
RTVSPropertyOp26
 70
     0
102
RTVSPropertyOp27
 70
     0
102
RTVSPropertyOp28
 70
     0
102
RTVSPropertyOp29
 70
     0
102
RTVSPropertyOp30
 70
     0
102
RTVSPropertyOp31
 70
     0
102
RTVSPropertyOp32
 70
     0
102
RTVSPropertyOp33
 70
     0
102
RTVSPropertyOp34
 70
     0
102
RTVSPropertyOp35
 70
     0
102
RTVSPropertyOp36
 70
     0
102
RTVSPropertyOp37
 70
     0
102
RTVSPropertyOp38
 70
     0
102
RTVSPropertyOp39
 70
     0
102
RTVSPropertyOp40
 70
     0
102
RTVSPropertyOp41
 70
     0
102
RTVSPropertyOp42
 70
     0
102
RTVSPropertyOp43
 70
     0
102
RTVSPropertyOp44
 70
     0
102
RTVSPropertyOp45
 70
     0
102
RTVSPropertyOp46
 70
     0
102
RTVSPropertyOp47
 70
     0
102
RTVSPropertyOp48
 70
     0
102
RTVSPropertyOp49
 70
     0
102
RTVSPropertyOp50
 70
     0
102
RTVSPropertyOp51
 70
     0
102
RTVSPropertyOp52
 70
     0
102
RTVSPropertyOp53
 70
     0
102
RTVSPropertyOp54
 70
     0
102
RTVSPropertyOp55
 70
     0
102
RTVSPropertyOp56
 70
     0
102
RTVSPropertyOp57
 70
     0
102
RTVSPost2010Prop28
280
     0
102
RTVSPost2010PropOp28
 70
     0
102
RTVSPost2010Prop29
280
     1
102
RTVSPost2010PropOp29
 70
     0
102
RTVSPost2010Prop30
280
     1
102
RTVSPost2010PropOp30
 70
     0
102
RTVSPost2010Prop31
280
     0
102
RTVSPost2010PropOp31
 70
     0
102
RTVSPost2010Prop32
280
     0
102
RTVSPost2010PropOp32
 70
     0
102
RTVSPost2010Prop33
280
     0
102
RTVSPost2010PropOp33
 70
     0
102
RTVSPost2010Prop34
280
     0
102
RTVSPost2010PropOp34
 70
     0
102
RTVSPost2010Prop35
280
     0
102
RTVSPost2010PropOp35
 70
     0
102
RTVSPost2010Prop36
280
     0
102
RTVSPost2010PropOp36
 70
     0
102
RTVSPost2010Prop37
 90
       50
102
RTVSPost2010PropOp37
 70
     0
102
RTVSPost2010Prop38
140
0.0
102
RTVSPost2010PropOp38
 70
     0
102
RTVSPost2010Prop39
140
1.0
102
RTVSPost2010PropOp39
 70
     0
102
RTVSPost2010Prop40
 90
        0
102
RTVSPost2010PropOp40
 70
     0
102
RTVSPost2010Prop41ColorIndex
 90
       18
102
RTVSPost2010Prop41ColorRGB
 90
        0
102
RTVSPost2010PropOp41
 70
     0
102
RTVSPost2010Prop42
 90
       50
102
RTVSPost2010PropOp42
 70
     0
102
RTVSPost2010Prop43
 90
        3
102
RTVSPost2010PropOp43
 70
     0
102
RTVSPost2010Prop44ColorIndex
 90
        5
102
RTVSPost2010Prop44ColorRGB
 90
      255
102
RTVSPost2010PropOp44
 70
     0
102
RTVSPost2010Prop45
280
     0
102
RTVSPost2010PropOp45
 70
     0
102
RTVSPost2010Prop46
 90
       50
102
RTVSPost2010PropOp46
 70
     0
102
RTVSPost2010Prop47
 90
       50
102
RTVSPost2010PropOp47
 70
     0
102
RTVSPost2010Prop48
 90
       50
102
RTVSPost2010PropOp48
 70
     0
102
RTVSPost2010Prop49
280
     0
102
RTVSPost2010PropOp49
 70
     0
102
RTVSPost2010Prop50
 90
       50
102
RTVSPost2010PropOp50
 70
     0
102
RTVSPost2010Prop51ColorIndex
 90
      256
102
RTVSPost2010Prop51ColorRGB
 90
-16777216
102
RTVSPost2010PropOp51
 70
     0
102
RTVSPost2010Prop52
140
1.0
102
RTVSPost2010PropOp52
 70
     0
102
RTVSPost2010Prop53
 90
        2
102
RTVSPost2010PropOp53
 70
     0
102
RTVSPost2010Prop54
  1
strokes_ogs.tif
102
RTVSPost2010PropOp54
 70
     0
102
RTVSPost2010Prop55
280
     0
102
RTVSPost2010PropOp55
 70
     0
102
RTVSPost2010Prop56
140
1.0
102
RTVSPost2010PropOp56
 70
     0
102
RTVSPost2010Prop57
140
1.0
102
RTVSPost2010PropOp57
 70
     0
  0
XRECORD
  5
194
102
{ACAD_REACTORS
330
193
102
}
330
193
100
AcDbXrecord
280
     1
102
RTVSPropertyOp0
 70
     1
102
RTVSPropertyOp1
 70
     1
102
RTVSPropertyOp2
 70
     1
102
RTVSPropertyOp3
 70
     1
102
RTVSPropertyOp4
 70
     1
102
RTVSPropertyOp5
 70
     1
102
RTVSPropertyOp6
 70
     1
102
RTVSPropertyOp7
 70
     1
102
RTVSPropertyOp8
 70
     1
102
RTVSPropertyOp9
 70
     1
102
RTVSPropertyOp10
 70
     1
102
RTVSPropertyOp11
 70
     1
102
RTVSPropertyOp12
 70
     1
102
RTVSPropertyOp13
 70
     1
102
RTVSPropertyOp14
 70
     1
102
RTVSPropertyOp15
 70
     1
102
RTVSPropertyOp16
 70
     1
102
RTVSPropertyOp17
 70
     1
102
RTVSPropertyOp18
 70
     1
102
RTVSPropertyOp19
 70
     1
102
RTVSPropertyOp20
 70
     1
102
RTVSPropertyOp21
 70
     1
102
RTVSPropertyOp22
 70
     1
102
RTVSPropertyOp23
 70
     1
102
RTVSPropertyOp24
 70
     1
102
RTVSPropertyOp25
 70
     1
102
RTVSPropertyOp26
 70
     1
102
RTVSPropertyOp27
 70
     1
102
RTVSPropertyOp28
 70
     1
102
RTVSPropertyOp29
 70
     1
102
RTVSPropertyOp30
 70
     1
102
RTVSPropertyOp31
 70
     1
102
RTVSPropertyOp32
 70
     1
102
RTVSPropertyOp33
 70
     1
102
RTVSPropertyOp34
 70
     1
102
RTVSPropertyOp35
 70
     1
102
RTVSPropertyOp36
 70
     1
102
RTVSPropertyOp37
 70
     1
102
RTVSPropertyOp38
 70
     1
102
RTVSPropertyOp39
 70
     1
102
RTVSPropertyOp40
 70
     1
102
RTVSPropertyOp41
 70
     1
102
RTVSPropertyOp42
 70
     1
102
RTVSPropertyOp43
 70
     1
102
RTVSPropertyOp44
 70
     1
102
RTVSPropertyOp45
 70
     1
102
RTVSPropertyOp46
 70
     1
102
RTVSPropertyOp47
 70
     1
102
RTVSPropertyOp48
 70
     1
102
RTVSPropertyOp49
 70
     1
102
RTVSPropertyOp50
 70
     1
102
RTVSPropertyOp51
 70
     0
102
RTVSPropertyOp52
 70
     0
102
RTVSPropertyOp53
 70
     1
102
RTVSPropertyOp54
 70
     1
102
RTVSPropertyOp55
 70
     1
102
RTVSPropertyOp56
 70
     1
102
RTVSPropertyOp57
 70
     1
102
RTVSPost2010Prop28
280
     0
102
RTVSPost2010PropOp28
 70
     1
102
RTVSPost2010Prop29
280
     1
102
RTVSPost2010PropOp29
 70
     1
102
RTVSPost2010Prop30
280
     1
102
RTVSPost2010PropOp30
 70
     1
102
RTVSPost2010Prop31
280
     0
102
RTVSPost2010PropOp31
 70
     1
102
RTVSPost2010Prop32
280
     0
102
RTVSPost2010PropOp32
 70
     1
102
RTVSPost2010Prop33
280
     0
102
RTVSPost2010PropOp33
 70
     1
102
RTVSPost2010Prop34
280
     0
102
RTVSPost2010PropOp34
 70
     1
102
RTVSPost2010Prop35
280
     0
102
RTVSPost2010PropOp35
 70
     1
102
RTVSPost2010Prop36
280
     0
102
RTVSPost2010PropOp36
 70
     1
102
RTVSPost2010Prop37
 90
       50
102
RTVSPost2010PropOp37
 70
     1
102
RTVSPost2010Prop38
140
0.0
102
RTVSPost2010PropOp38
 70
     1
102
RTVSPost2010Prop39
140
1.0
102
RTVSPost2010PropOp39
 70
     1
102
RTVSPost2010Prop40
 90
        0
102
RTVSPost2010PropOp40
 70
     1
102
RTVSPost2010Prop41ColorIndex
 90
       18
102
RTVSPost2010Prop41ColorRGB
 90
        0
102
RTVSPost2010PropOp41
 70
     1
102
RTVSPost2010Prop42
 90
       50
102
RTVSPost2010PropOp42
 70
     1
102
RTVSPost2010Prop43
 90
        3
102
RTVSPost2010PropOp43
 70
     1
102
RTVSPost2010Prop44ColorIndex
 90
        5
102
RTVSPost2010Prop44ColorRGB
 90
      255
102
RTVSPost2010PropOp44
 70
     1
102
RTVSPost2010Prop45
280
     0
102
RTVSPost2010PropOp45
 70
     1
102
RTVSPost2010Prop46
 90
       50
102
RTVSPost2010PropOp46
 70
     1
102
RTVSPost2010Prop47
 90
       50
102
RTVSPost2010PropOp47
 70
     1
102
RTVSPost2010Prop48
 90
       50
102
RTVSPost2010PropOp48
 70
     1
102
RTVSPost2010Prop49
280
     0
102
RTVSPost2010PropOp49
 70
     1
102
RTVSPost2010Prop50
 90
       50
102
RTVSPost2010PropOp50
 70
     1
102
RTVSPost2010Prop51ColorIndex
 90
      256
102
RTVSPost2010Prop51ColorRGB
 90
-16777216
102
RTVSPost2010PropOp51
 70
     0
102
RTVSPost2010Prop52
140
1.0
102
RTVSPost2010PropOp52
 70
     0
102
RTVSPost2010Prop53
 90
        2
102
RTVSPost2010PropOp53
 70
     1
102
RTVSPost2010Prop54
  1
strokes_ogs.tif
102
RTVSPost2010PropOp54
 70
     1
102
RTVSPost2010Prop55
280
     0
102
RTVSPost2010PropOp55
 70
     1
102
RTVSPost2010Prop56
140
1.0
102
RTVSPost2010PropOp56
 70
     1
102
RTVSPost2010Prop57
140
1.0
102
RTVSPost2010PropOp57
 70
     1
  0
XRECORD
  5
19C
102
{ACAD_REACTORS
330
19B
102
}
330
19B
100
AcDbXrecord
280
     1
102
RTVSPropertyOp0
 70
     0
102
RTVSPropertyOp1
 70
     0
102
RTVSPropertyOp2
 70
     0
102
RTVSPropertyOp3
 70
     0
102
RTVSPropertyOp4
 70
     0
102
RTVSPropertyOp5
 70
     0
102
RTVSPropertyOp6
 70
     0
102
RTVSPropertyOp7
 70
     0
102
RTVSPropertyOp8
 70
     0
102
RTVSPropertyOp9
 70
     0
102
RTVSPropertyOp10
 70
     0
102
RTVSPropertyOp11
 70
     0
102
RTVSPropertyOp12
 70
     0
102
RTVSPropertyOp13
 70
     0
102
RTVSPropertyOp14
 70
     2
102
RTVSPropertyOp15
 70
     0
102
RTVSPropertyOp16
 70
     0
102
RTVSPropertyOp17
 70
     0
102
RTVSPropertyOp18
 70
     0
102
RTVSPropertyOp19
 70
     0
102
RTVSPropertyOp20
 70
     0
102
RTVSPropertyOp21
 70
     0
102
RTVSPropertyOp22
 70
     0
102
RTVSPropertyOp23
 70
     0
102
RTVSPropertyOp24
 70
     0
102
RTVSPropertyOp25
 70
     0
102
RTVSPropertyOp26
 70
     0
102
RTVSPropertyOp27
 70
     0
102
RTVSPropertyOp28
 70
     0
102
RTVSPropertyOp29
 70
     0
102
RTVSPropertyOp30
 70
     0
102
RTVSPropertyOp31
 70
     0
102
RTVSPropertyOp32
 70
     0
102
RTVSPropertyOp33
 70
     0
102
RTVSPropertyOp34
 70
     0
102
RTVSPropertyOp35
 70
     0
102
RTVSPropertyOp36
 70
     0
102
RTVSPropertyOp37
 70
     0
102
RTVSPropertyOp38
 70
     0
102
RTVSPropertyOp39
 70
     0
102
RTVSPropertyOp40
 70
     0
102
RTVSPropertyOp41
 70
     0
102
RTVSPropertyOp42
 70
     0
102
RTVSPropertyOp43
 70
     0
102
RTVSPropertyOp44
 70
     0
102
RTVSPropertyOp45
 70
     0
102
RTVSPropertyOp46
 70
     0
102
RTVSPropertyOp47
 70
     0
102
RTVSPropertyOp48
 70
     0
102
RTVSPropertyOp49
 70
     0
102
RTVSPropertyOp50
 70
     0
102
RTVSPropertyOp51
 70
     0
102
RTVSPropertyOp52
 70
     0
102
RTVSPropertyOp53
 70
     0
102
RTVSPropertyOp54
 70
     0
102
RTVSPropertyOp55
 70
     0
102
RTVSPropertyOp56
 70
     0
102
RTVSPropertyOp57
 70
     0
102
RTVSPost2010Prop28
280
     0
102
RTVSPost2010PropOp28
 70
     0
102
RTVSPost2010Prop29
280
     1
102
RTVSPost2010PropOp29
 70
     0
102
RTVSPost2010Prop30
280
     1
102
RTVSPost2010PropOp30
 70
     0
102
RTVSPost2010Prop31
280
     0
102
RTVSPost2010PropOp31
 70
     0
102
RTVSPost2010Prop32
280
     0
102
RTVSPost2010PropOp32
 70
     0
102
RTVSPost2010Prop33
280
     0
102
RTVSPost2010PropOp33
 70
     0
102
RTVSPost2010Prop34
280
     0
102
RTVSPost2010PropOp34
 70
     0
102
RTVSPost2010Prop35
280
     0
102
RTVSPost2010PropOp35
 70
     0
102
RTVSPost2010Prop36
280
     0
102
RTVSPost2010PropOp36
 70
     0
102
RTVSPost2010Prop37
 90
       50
102
RTVSPost2010PropOp37
 70
     0
102
RTVSPost2010Prop38
140
0.0
102
RTVSPost2010PropOp38
 70
     0
102
RTVSPost2010Prop39
140
1.0
102
RTVSPost2010PropOp39
 70
     0
102
RTVSPost2010Prop40
 90
        0
102
RTVSPost2010PropOp40
 70
     0
102
RTVSPost2010Prop41ColorIndex
 90
       18
102
RTVSPost2010Prop41ColorRGB
 90
        0
102
RTVSPost2010PropOp41
 70
     0
102
RTVSPost2010Prop42
 90
       50
102
RTVSPost2010PropOp42
 70
     0
102
RTVSPost2010Prop43
 90
        3
102
RTVSPost2010PropOp43
 70
     0
102
RTVSPost2010Prop44ColorIndex
 90
        5
102
RTVSPost2010Prop44ColorRGB
 90
      255
102
RTVSPost2010PropOp44
 70
     0
102
RTVSPost2010Prop45
280
     0
102
RTVSPost2010PropOp45
 70
     0
102
RTVSPost2010Prop46
 90
       50
102
RTVSPost2010PropOp46
 70
     0
102
RTVSPost2010Prop47
 90
       50
102
RTVSPost2010PropOp47
 70
     0
102
RTVSPost2010Prop48
 90
       50
102
RTVSPost2010PropOp48
 70
     0
102
RTVSPost2010Prop49
280
     0
102
RTVSPost2010PropOp49
 70
     0
102
RTVSPost2010Prop50
 90
       50
102
RTVSPost2010PropOp50
 70
     0
102
RTVSPost2010Prop51ColorIndex
 90
      256
102
RTVSPost2010Prop51ColorRGB
 90
-16777216
102
RTVSPost2010PropOp51
 70
     0
102
RTVSPost2010Prop52
140
1.0
102
RTVSPost2010PropOp52
 70
     0
102
RTVSPost2010Prop53
 90
        2
102
RTVSPost2010PropOp53
 70
     0
102
RTVSPost2010Prop54
  1
strokes_ogs.tif
102
RTVSPost2010PropOp54
 70
     0
102
RTVSPost2010Prop55
280
     0
102
RTVSPost2010PropOp55
 70
     0
102
RTVSPost2010Prop56
140
1.0
102
RTVSPost2010PropOp56
 70
     0
102
RTVSPost2010Prop57
140
1.0
102
RTVSPost2010PropOp57
 70
     0
  0
XRECORD
  5
18A
102
{ACAD_REACTORS
330
189
102
}
330
189
100
AcDbXrecord
280
     1
102
RTVSPropertyOp0
 70
     1
102
RTVSPropertyOp1
 70
     1
102
RTVSPropertyOp2
 70
     1
102
RTVSPropertyOp3
 70
     1
102
RTVSPropertyOp4
 70
     1
102
RTVSPropertyOp5
 70
     1
102
RTVSPropertyOp6
 70
     1
102
RTVSPropertyOp7
 70
     1
102
RTVSPropertyOp8
 70
     1
102
RTVSPropertyOp9
 70
     1
102
RTVSPropertyOp10
 70
     1
102
RTVSPropertyOp11
 70
     1
102
RTVSPropertyOp12
 70
     1
102
RTVSPropertyOp13
 70
     1
102
RTVSPropertyOp14
 70
     1
102
RTVSPropertyOp15
 70
     1
102
RTVSPropertyOp16
 70
     1
102
RTVSPropertyOp17
 70
     1
102
RTVSPropertyOp18
 70
     1
102
RTVSPropertyOp19
 70
     1
102
RTVSPropertyOp20
 70
     1
102
RTVSPropertyOp21
 70
     1
102
RTVSPropertyOp22
 70
     1
102
RTVSPropertyOp23
 70
     1
102
RTVSPropertyOp24
 70
     1
102
RTVSPropertyOp25
 70
     1
102
RTVSPropertyOp26
 70
     1
102
RTVSPropertyOp27
 70
     1
102
RTVSPropertyOp28
 70
     1
102
RTVSPropertyOp29
 70
     1
102
RTVSPropertyOp30
 70
     1
102
RTVSPropertyOp31
 70
     1
102
RTVSPropertyOp32
 70
     1
102
RTVSPropertyOp33
 70
     1
102
RTVSPropertyOp34
 70
     1
102
RTVSPropertyOp35
 70
     1
102
RTVSPropertyOp36
 70
     1
102
RTVSPropertyOp37
 70
     1
102
RTVSPropertyOp38
 70
     1
102
RTVSPropertyOp39
 70
     1
102
RTVSPropertyOp40
 70
     1
102
RTVSPropertyOp41
 70
     1
102
RTVSPropertyOp42
 70
     1
102
RTVSPropertyOp43
 70
     1
102
RTVSPropertyOp44
 70
     1
102
RTVSPropertyOp45
 70
     1
102
RTVSPropertyOp46
 70
     1
102
RTVSPropertyOp47
 70
     1
102
RTVSPropertyOp48
 70
     1
102
RTVSPropertyOp49
 70
     1
102
RTVSPropertyOp50
 70
     1
102
RTVSPropertyOp51
 70
     0
102
RTVSPropertyOp52
 70
     0
102
RTVSPropertyOp53
 70
     1
102
RTVSPropertyOp54
 70
     1
102
RTVSPropertyOp55
 70
     1
102
RTVSPropertyOp56
 70
     1
102
RTVSPropertyOp57
 70
     1
102
RTVSPost2010Prop28
280
     0
102
RTVSPost2010PropOp28
 70
     1
102
RTVSPost2010Prop29
280
     1
102
RTVSPost2010PropOp29
 70
     1
102
RTVSPost2010Prop30
280
     1
102
RTVSPost2010PropOp30
 70
     1
102
RTVSPost2010Prop31
280
     0
102
RTVSPost2010PropOp31
 70
     1
102
RTVSPost2010Prop32
280
     0
102
RTVSPost2010PropOp32
 70
     1
102
RTVSPost2010Prop33
280
     0
102
RTVSPost2010PropOp33
 70
     1
102
RTVSPost2010Prop34
280
     0
102
RTVSPost2010PropOp34
 70
     1
102
RTVSPost2010Prop35
280
     0
102
RTVSPost2010PropOp35
 70
     1
102
RTVSPost2010Prop36
280
     0
102
RTVSPost2010PropOp36
 70
     1
102
RTVSPost2010Prop37
 90
       50
102
RTVSPost2010PropOp37
 70
     1
102
RTVSPost2010Prop38
140
0.0
102
RTVSPost2010PropOp38
 70
     1
102
RTVSPost2010Prop39
140
1.0
102
RTVSPost2010PropOp39
 70
     1
102
RTVSPost2010Prop40
 90
        0
102
RTVSPost2010PropOp40
 70
     1
102
RTVSPost2010Prop41ColorIndex
 90
       18
102
RTVSPost2010Prop41ColorRGB
 90
        0
102
RTVSPost2010PropOp41
 70
     1
102
RTVSPost2010Prop42
 90
       50
102
RTVSPost2010PropOp42
 70
     1
102
RTVSPost2010Prop43
 90
        3
102
RTVSPost2010PropOp43
 70
     1
102
RTVSPost2010Prop44ColorIndex
 90
        5
102
RTVSPost2010Prop44ColorRGB
 90
      255
102
RTVSPost2010PropOp44
 70
     1
102
RTVSPost2010Prop45
280
     0
102
RTVSPost2010PropOp45
 70
     1
102
RTVSPost2010Prop46
 90
       50
102
RTVSPost2010PropOp46
 70
     1
102
RTVSPost2010Prop47
 90
       50
102
RTVSPost2010PropOp47
 70
     1
102
RTVSPost2010Prop48
 90
       50
102
RTVSPost2010PropOp48
 70
     1
102
RTVSPost2010Prop49
280
     0
102
RTVSPost2010PropOp49
 70
     1
102
RTVSPost2010Prop50
 90
       50
102
RTVSPost2010PropOp50
 70
     1
102
RTVSPost2010Prop51ColorIndex
 90
      256
102
RTVSPost2010Prop51ColorRGB
 90
-16777216
102
RTVSPost2010PropOp51
 70
     0
102
RTVSPost2010Prop52
140
1.0
102
RTVSPost2010PropOp52
 70
     0
102
RTVSPost2010Prop53
 90
        2
102
RTVSPost2010PropOp53
 70
     1
102
RTVSPost2010Prop54
  1
strokes_ogs.tif
102
RTVSPost2010PropOp54
 70
     1
102
RTVSPost2010Prop55
280
     0
102
RTVSPost2010PropOp55
 70
     1
102
RTVSPost2010Prop56
140
1.0
102
RTVSPost2010PropOp56
 70
     1
102
RTVSPost2010Prop57
140
1.0
102
RTVSPost2010PropOp57
 70
     1
  0
XRECORD
  5
1A8
102
{ACAD_REACTORS
330
1A7
102
}
330
1A7
100
AcDbXrecord
280
     1
102
RTVSPropertyOp0
 70
     1
102
RTVSPropertyOp1
 70
     1
102
RTVSPropertyOp2
 70
     1
102
RTVSPropertyOp3
 70
     1
102
RTVSPropertyOp4
 70
     1
102
RTVSPropertyOp5
 70
     1
102
RTVSPropertyOp6
 70
     1
102
RTVSPropertyOp7
 70
     1
102
RTVSPropertyOp8
 70
     1
102
RTVSPropertyOp9
 70
     1
102
RTVSPropertyOp10
 70
     1
102
RTVSPropertyOp11
 70
     1
102
RTVSPropertyOp12
 70
     1
102
RTVSPropertyOp13
 70
     1
102
RTVSPropertyOp14
 70
     1
102
RTVSPropertyOp15
 70
     1
102
RTVSPropertyOp16
 70
     1
102
RTVSPropertyOp17
 70
     1
102
RTVSPropertyOp18
 70
     1
102
RTVSPropertyOp19
 70
     1
102
RTVSPropertyOp20
 70
     1
102
RTVSPropertyOp21
 70
     1
102
RTVSPropertyOp22
 70
     1
102
RTVSPropertyOp23
 70
     1
102
RTVSPropertyOp24
 70
     1
102
RTVSPropertyOp25
 70
     1
102
RTVSPropertyOp26
 70
     1
102
RTVSPropertyOp27
 70
     1
102
RTVSPropertyOp28
 70
     1
102
RTVSPropertyOp29
 70
     1
102
RTVSPropertyOp30
 70
     1
102
RTVSPropertyOp31
 70
     1
102
RTVSPropertyOp32
 70
     1
102
RTVSPropertyOp33
 70
     1
102
RTVSPropertyOp34
 70
     1
102
RTVSPropertyOp35
 70
     1
102
RTVSPropertyOp36
 70
     1
102
RTVSPropertyOp37
 70
     1
102
RTVSPropertyOp38
 70
     1
102
RTVSPropertyOp39
 70
     1
102
RTVSPropertyOp40
 70
     1
102
RTVSPropertyOp41
 70
     1
102
RTVSPropertyOp42
 70
     1
102
RTVSPropertyOp43
 70
     1
102
RTVSPropertyOp44
 70
     1
102
RTVSPropertyOp45
 70
     1
102
RTVSPropertyOp46
 70
     1
102
RTVSPropertyOp47
 70
     1
102
RTVSPropertyOp48
 70
     1
102
RTVSPropertyOp49
 70
     1
102
RTVSPropertyOp50
 70
     1
102
RTVSPropertyOp51
 70
     0
102
RTVSPropertyOp52
 70
     0
102
RTVSPropertyOp53
 70
     1
102
RTVSPropertyOp54
 70
     1
102
RTVSPropertyOp55
 70
     1
102
RTVSPropertyOp56
 70
     1
102
RTVSPropertyOp57
 70
     1
102
RTVSPost2010Prop28
280
     0
102
RTVSPost2010PropOp28
 70
     1
102
RTVSPost2010Prop29
280
     1
102
RTVSPost2010PropOp29
 70
     1
102
RTVSPost2010Prop30
280
     1
102
RTVSPost2010PropOp30
 70
     1
102
RTVSPost2010Prop31
280
     0
102
RTVSPost2010PropOp31
 70
     1
102
RTVSPost2010Prop32
280
     0
102
RTVSPost2010PropOp32
 70
     1
102
RTVSPost2010Prop33
280
     0
102
RTVSPost2010PropOp33
 70
     1
102
RTVSPost2010Prop34
280
     0
102
RTVSPost2010PropOp34
 70
     1
102
RTVSPost2010Prop35
280
     0
102
RTVSPost2010PropOp35
 70
     1
102
RTVSPost2010Prop36
280
     0
102
RTVSPost2010PropOp36
 70
     1
102
RTVSPost2010Prop37
 90
       50
102
RTVSPost2010PropOp37
 70
     1
102
RTVSPost2010Prop38
140
0.0
102
RTVSPost2010PropOp38
 70
     1
102
RTVSPost2010Prop39
140
1.0
102
RTVSPost2010PropOp39
 70
     1
102
RTVSPost2010Prop40
 90
        0
102
RTVSPost2010PropOp40
 70
     1
102
RTVSPost2010Prop41ColorIndex
 90
       18
102
RTVSPost2010Prop41ColorRGB
 90
        0
102
RTVSPost2010PropOp41
 70
     1
102
RTVSPost2010Prop42
 90
       50
102
RTVSPost2010PropOp42
 70
     1
102
RTVSPost2010Prop43
 90
        3
102
RTVSPost2010PropOp43
 70
     1
102
RTVSPost2010Prop44ColorIndex
 90
        5
102
RTVSPost2010Prop44ColorRGB
 90
      255
102
RTVSPost2010PropOp44
 70
     1
102
RTVSPost2010Prop45
280
     0
102
RTVSPost2010PropOp45
 70
     1
102
RTVSPost2010Prop46
 90
       50
102
RTVSPost2010PropOp46
 70
     1
102
RTVSPost2010Prop47
 90
       50
102
RTVSPost2010PropOp47
 70
     1
102
RTVSPost2010Prop48
 90
       50
102
RTVSPost2010PropOp48
 70
     1
102
RTVSPost2010Prop49
280
     0
102
RTVSPost2010PropOp49
 70
     1
102
RTVSPost2010Prop50
 90
       50
102
RTVSPost2010PropOp50
 70
     1
102
RTVSPost2010Prop51ColorIndex
 90
      256
102
RTVSPost2010Prop51ColorRGB
 90
-16777216
102
RTVSPost2010PropOp51
 70
     0
102
RTVSPost2010Prop52
140
1.0
102
RTVSPost2010PropOp52
 70
     0
102
RTVSPost2010Prop53
 90
        2
102
RTVSPost2010PropOp53
 70
     1
102
RTVSPost2010Prop54
  1
strokes_ogs.tif
102
RTVSPost2010PropOp54
 70
     1
102
RTVSPost2010Prop55
280
     0
102
RTVSPost2010PropOp55
 70
     1
102
RTVSPost2010Prop56
140
1.0
102
RTVSPost2010PropOp56
 70
     1
102
RTVSPost2010Prop57
140
1.0
102
RTVSPost2010PropOp57
 70
     1
  0
XRECORD
  5
1A6
102
{ACAD_REACTORS
330
1A5
102
}
330
1A5
100
AcDbXrecord
280
     1
102
RTVSPropertyOp0
 70
     1
102
RTVSPropertyOp1
 70
     1
102
RTVSPropertyOp2
 70
     1
102
RTVSPropertyOp3
 70
     1
102
RTVSPropertyOp4
 70
     1
102
RTVSPropertyOp5
 70
     1
102
RTVSPropertyOp6
 70
     1
102
RTVSPropertyOp7
 70
     1
102
RTVSPropertyOp8
 70
     1
102
RTVSPropertyOp9
 70
     1
102
RTVSPropertyOp10
 70
     1
102
RTVSPropertyOp11
 70
     1
102
RTVSPropertyOp12
 70
     1
102
RTVSPropertyOp13
 70
     1
102
RTVSPropertyOp14
 70
     1
102
RTVSPropertyOp15
 70
     1
102
RTVSPropertyOp16
 70
     1
102
RTVSPropertyOp17
 70
     1
102
RTVSPropertyOp18
 70
     1
102
RTVSPropertyOp19
 70
     1
102
RTVSPropertyOp20
 70
     1
102
RTVSPropertyOp21
 70
     1
102
RTVSPropertyOp22
 70
     1
102
RTVSPropertyOp23
 70
     1
102
RTVSPropertyOp24
 70
     1
102
RTVSPropertyOp25
 70
     1
102
RTVSPropertyOp26
 70
     1
102
RTVSPropertyOp27
 70
     1
102
RTVSPropertyOp28
 70
     1
102
RTVSPropertyOp29
 70
     1
102
RTVSPropertyOp30
 70
     1
102
RTVSPropertyOp31
 70
     1
102
RTVSPropertyOp32
 70
     1
102
RTVSPropertyOp33
 70
     1
102
RTVSPropertyOp34
 70
     1
102
RTVSPropertyOp35
 70
     1
102
RTVSPropertyOp36
 70
     1
102
RTVSPropertyOp37
 70
     1
102
RTVSPropertyOp38
 70
     1
102
RTVSPropertyOp39
 70
     1
102
RTVSPropertyOp40
 70
     1
102
RTVSPropertyOp41
 70
     1
102
RTVSPropertyOp42
 70
     1
102
RTVSPropertyOp43
 70
     1
102
RTVSPropertyOp44
 70
     1
102
RTVSPropertyOp45
 70
     1
102
RTVSPropertyOp46
 70
     1
102
RTVSPropertyOp47
 70
     1
102
RTVSPropertyOp48
 70
     1
102
RTVSPropertyOp49
 70
     1
102
RTVSPropertyOp50
 70
     1
102
RTVSPropertyOp51
 70
     0
102
RTVSPropertyOp52
 70
     0
102
RTVSPropertyOp53
 70
     1
102
RTVSPropertyOp54
 70
     1
102
RTVSPropertyOp55
 70
     1
102
RTVSPropertyOp56
 70
     1
102
RTVSPropertyOp57
 70
     1
102
RTVSPost2010Prop28
280
     0
102
RTVSPost2010PropOp28
 70
     1
102
RTVSPost2010Prop29
280
     1
102
RTVSPost2010PropOp29
 70
     1
102
RTVSPost2010Prop30
280
     1
102
RTVSPost2010PropOp30
 70
     1
102
RTVSPost2010Prop31
280
     0
102
RTVSPost2010PropOp31
 70
     1
102
RTVSPost2010Prop32
280
     0
102
RTVSPost2010PropOp32
 70
     1
102
RTVSPost2010Prop33
280
     0
102
RTVSPost2010PropOp33
 70
     1
102
RTVSPost2010Prop34
280
     0
102
RTVSPost2010PropOp34
 70
     1
102
RTVSPost2010Prop35
280
     0
102
RTVSPost2010PropOp35
 70
     1
102
RTVSPost2010Prop36
280
     0
102
RTVSPost2010PropOp36
 70
     1
102
RTVSPost2010Prop37
 90
       50
102
RTVSPost2010PropOp37
 70
     1
102
RTVSPost2010Prop38
140
0.0
102
RTVSPost2010PropOp38
 70
     1
102
RTVSPost2010Prop39
140
1.0
102
RTVSPost2010PropOp39
 70
     1
102
RTVSPost2010Prop40
 90
        0
102
RTVSPost2010PropOp40
 70
     1
102
RTVSPost2010Prop41ColorIndex
 90
       18
102
RTVSPost2010Prop41ColorRGB
 90
        0
102
RTVSPost2010PropOp41
 70
     1
102
RTVSPost2010Prop42
 90
       50
102
RTVSPost2010PropOp42
 70
     1
102
RTVSPost2010Prop43
 90
        3
102
RTVSPost2010PropOp43
 70
     1
102
RTVSPost2010Prop44ColorIndex
 90
        5
102
RTVSPost2010Prop44ColorRGB
 90
      255
102
RTVSPost2010PropOp44
 70
     1
102
RTVSPost2010Prop45
280
     0
102
RTVSPost2010PropOp45
 70
     1
102
RTVSPost2010Prop46
 90
       50
102
RTVSPost2010PropOp46
 70
     1
102
RTVSPost2010Prop47
 90
       50
102
RTVSPost2010PropOp47
 70
     1
102
RTVSPost2010Prop48
 90
       50
102
RTVSPost2010PropOp48
 70
     1
102
RTVSPost2010Prop49
280
     0
102
RTVSPost2010PropOp49
 70
     1
102
RTVSPost2010Prop50
 90
       50
102
RTVSPost2010PropOp50
 70
     1
102
RTVSPost2010Prop51ColorIndex
 90
      256
102
RTVSPost2010Prop51ColorRGB
 90
-16777216
102
RTVSPost2010PropOp51
 70
     0
102
RTVSPost2010Prop52
140
1.0
102
RTVSPost2010PropOp52
 70
     0
102
RTVSPost2010Prop53
 90
        2
102
RTVSPost2010PropOp53
 70
     1
102
RTVSPost2010Prop54
  1
strokes_ogs.tif
102
RTVSPost2010PropOp54
 70
     1
102
RTVSPost2010Prop55
280
     0
102
RTVSPost2010PropOp55
 70
     1
102
RTVSPost2010Prop56
140
1.0
102
RTVSPost2010PropOp56
 70
     1
102
RTVSPost2010Prop57
140
1.0
102
RTVSPost2010PropOp57
 70
     1
  0
XRECORD
  5
1A0
102
{ACAD_REACTORS
330
19F
102
}
330
19F
100
AcDbXrecord
280
     1
102
RTVSPropertyOp0
 70
     1
102
RTVSPropertyOp1
 70
     1
102
RTVSPropertyOp2
 70
     1
102
RTVSPropertyOp3
 70
     1
102
RTVSPropertyOp4
 70
     1
102
RTVSPropertyOp5
 70
     1
102
RTVSPropertyOp6
 70
     1
102
RTVSPropertyOp7
 70
     1
102
RTVSPropertyOp8
 70
     1
102
RTVSPropertyOp9
 70
     1
102
RTVSPropertyOp10
 70
     1
102
RTVSPropertyOp11
 70
     1
102
RTVSPropertyOp12
 70
     1
102
RTVSPropertyOp13
 70
     1
102
RTVSPropertyOp14
 70
     1
102
RTVSPropertyOp15
 70
     1
102
RTVSPropertyOp16
 70
     1
102
RTVSPropertyOp17
 70
     1
102
RTVSPropertyOp18
 70
     1
102
RTVSPropertyOp19
 70
     1
102
RTVSPropertyOp20
 70
     1
102
RTVSPropertyOp21
 70
     1
102
RTVSPropertyOp22
 70
     1
102
RTVSPropertyOp23
 70
     1
102
RTVSPropertyOp24
 70
     1
102
RTVSPropertyOp25
 70
     1
102
RTVSPropertyOp26
 70
     1
102
RTVSPropertyOp27
 70
     1
102
RTVSPropertyOp28
 70
     1
102
RTVSPropertyOp29
 70
     1
102
RTVSPropertyOp30
 70
     1
102
RTVSPropertyOp31
 70
     1
102
RTVSPropertyOp32
 70
     1
102
RTVSPropertyOp33
 70
     1
102
RTVSPropertyOp34
 70
     1
102
RTVSPropertyOp35
 70
     1
102
RTVSPropertyOp36
 70
     1
102
RTVSPropertyOp37
 70
     1
102
RTVSPropertyOp38
 70
     1
102
RTVSPropertyOp39
 70
     1
102
RTVSPropertyOp40
 70
     1
102
RTVSPropertyOp41
 70
     1
102
RTVSPropertyOp42
 70
     1
102
RTVSPropertyOp43
 70
     1
102
RTVSPropertyOp44
 70
     1
102
RTVSPropertyOp45
 70
     1
102
RTVSPropertyOp46
 70
     1
102
RTVSPropertyOp47
 70
     1
102
RTVSPropertyOp48
 70
     1
102
RTVSPropertyOp49
 70
     1
102
RTVSPropertyOp50
 70
     1
102
RTVSPropertyOp51
 70
     0
102
RTVSPropertyOp52
 70
     0
102
RTVSPropertyOp53
 70
     1
102
RTVSPropertyOp54
 70
     1
102
RTVSPropertyOp55
 70
     1
102
RTVSPropertyOp56
 70
     1
102
RTVSPropertyOp57
 70
     1
102
RTVSPost2010Prop28
280
     0
102
RTVSPost2010PropOp28
 70
     1
102
RTVSPost2010Prop29
280
     1
102
RTVSPost2010PropOp29
 70
     1
102
RTVSPost2010Prop30
280
     1
102
RTVSPost2010PropOp30
 70
     1
102
RTVSPost2010Prop31
280
     0
102
RTVSPost2010PropOp31
 70
     1
102
RTVSPost2010Prop32
280
     0
102
RTVSPost2010PropOp32
 70
     1
102
RTVSPost2010Prop33
280
     0
102
RTVSPost2010PropOp33
 70
     1
102
RTVSPost2010Prop34
280
     0
102
RTVSPost2010PropOp34
 70
     1
102
RTVSPost2010Prop35
280
     0
102
RTVSPost2010PropOp35
 70
     1
102
RTVSPost2010Prop36
280
     0
102
RTVSPost2010PropOp36
 70
     1
102
RTVSPost2010Prop37
 90
       50
102
RTVSPost2010PropOp37
 70
     1
102
RTVSPost2010Prop38
140
0.0
102
RTVSPost2010PropOp38
 70
     1
102
RTVSPost2010Prop39
140
1.0
102
RTVSPost2010PropOp39
 70
     1
102
RTVSPost2010Prop40
 90
        0
102
RTVSPost2010PropOp40
 70
     1
102
RTVSPost2010Prop41ColorIndex
 90
       18
102
RTVSPost2010Prop41ColorRGB
 90
        0
102
RTVSPost2010PropOp41
 70
     1
102
RTVSPost2010Prop42
 90
       50
102
RTVSPost2010PropOp42
 70
     1
102
RTVSPost2010Prop43
 90
        3
102
RTVSPost2010PropOp43
 70
     1
102
RTVSPost2010Prop44ColorIndex
 90
        5
102
RTVSPost2010Prop44ColorRGB
 90
      255
102
RTVSPost2010PropOp44
 70
     1
102
RTVSPost2010Prop45
280
     0
102
RTVSPost2010PropOp45
 70
     1
102
RTVSPost2010Prop46
 90
       50
102
RTVSPost2010PropOp46
 70
     1
102
RTVSPost2010Prop47
 90
       50
102
RTVSPost2010PropOp47
 70
     1
102
RTVSPost2010Prop48
 90
       50
102
RTVSPost2010PropOp48
 70
     1
102
RTVSPost2010Prop49
280
     0
102
RTVSPost2010PropOp49
 70
     1
102
RTVSPost2010Prop50
 90
       50
102
RTVSPost2010PropOp50
 70
     1
102
RTVSPost2010Prop51ColorIndex
 90
      256
102
RTVSPost2010Prop51ColorRGB
 90
-16777216
102
RTVSPost2010PropOp51
 70
     0
102
RTVSPost2010Prop52
140
1.0
102
RTVSPost2010PropOp52
 70
     0
102
RTVSPost2010Prop53
 90
        2
102
RTVSPost2010PropOp53
 70
     1
102
RTVSPost2010Prop54
  1
strokes_ogs.tif
102
RTVSPost2010PropOp54
 70
     1
102
RTVSPost2010Prop55
280
     0
102
RTVSPost2010PropOp55
 70
     1
102
RTVSPost2010Prop56
140
1.0
102
RTVSPost2010PropOp56
 70
     1
102
RTVSPost2010Prop57
140
1.0
102
RTVSPost2010PropOp57
 70
     1
  0
XRECORD
  5
1A2
102
{ACAD_REACTORS
330
1A1
102
}
330
1A1
100
AcDbXrecord
280
     1
102
RTVSPropertyOp0
 70
     1
102
RTVSPropertyOp1
 70
     1
102
RTVSPropertyOp2
 70
     1
102
RTVSPropertyOp3
 70
     1
102
RTVSPropertyOp4
 70
     1
102
RTVSPropertyOp5
 70
     1
102
RTVSPropertyOp6
 70
     1
102
RTVSPropertyOp7
 70
     1
102
RTVSPropertyOp8
 70
     1
102
RTVSPropertyOp9
 70
     1
102
RTVSPropertyOp10
 70
     1
102
RTVSPropertyOp11
 70
     1
102
RTVSPropertyOp12
 70
     1
102
RTVSPropertyOp13
 70
     1
102
RTVSPropertyOp14
 70
     1
102
RTVSPropertyOp15
 70
     1
102
RTVSPropertyOp16
 70
     1
102
RTVSPropertyOp17
 70
     1
102
RTVSPropertyOp18
 70
     1
102
RTVSPropertyOp19
 70
     1
102
RTVSPropertyOp20
 70
     1
102
RTVSPropertyOp21
 70
     1
102
RTVSPropertyOp22
 70
     1
102
RTVSPropertyOp23
 70
     1
102
RTVSPropertyOp24
 70
     1
102
RTVSPropertyOp25
 70
     1
102
RTVSPropertyOp26
 70
     1
102
RTVSPropertyOp27
 70
     1
102
RTVSPropertyOp28
 70
     1
102
RTVSPropertyOp29
 70
     1
102
RTVSPropertyOp30
 70
     1
102
RTVSPropertyOp31
 70
     1
102
RTVSPropertyOp32
 70
     1
102
RTVSPropertyOp33
 70
     1
102
RTVSPropertyOp34
 70
     1
102
RTVSPropertyOp35
 70
     1
102
RTVSPropertyOp36
 70
     1
102
RTVSPropertyOp37
 70
     1
102
RTVSPropertyOp38
 70
     1
102
RTVSPropertyOp39
 70
     1
102
RTVSPropertyOp40
 70
     1
102
RTVSPropertyOp41
 70
     1
102
RTVSPropertyOp42
 70
     1
102
RTVSPropertyOp43
 70
     1
102
RTVSPropertyOp44
 70
     1
102
RTVSPropertyOp45
 70
     1
102
RTVSPropertyOp46
 70
     1
102
RTVSPropertyOp47
 70
     1
102
RTVSPropertyOp48
 70
     1
102
RTVSPropertyOp49
 70
     1
102
RTVSPropertyOp50
 70
     1
102
RTVSPropertyOp51
 70
     0
102
RTVSPropertyOp52
 70
     0
102
RTVSPropertyOp53
 70
     1
102
RTVSPropertyOp54
 70
     1
102
RTVSPropertyOp55
 70
     1
102
RTVSPropertyOp56
 70
     1
102
RTVSPropertyOp57
 70
     1
102
RTVSPost2010Prop28
280
     0
102
RTVSPost2010PropOp28
 70
     1
102
RTVSPost2010Prop29
280
     1
102
RTVSPost2010PropOp29
 70
     1
102
RTVSPost2010Prop30
280
     1
102
RTVSPost2010PropOp30
 70
     1
102
RTVSPost2010Prop31
280
     0
102
RTVSPost2010PropOp31
 70
     1
102
RTVSPost2010Prop32
280
     0
102
RTVSPost2010PropOp32
 70
     1
102
RTVSPost2010Prop33
280
     0
102
RTVSPost2010PropOp33
 70
     1
102
RTVSPost2010Prop34
280
     0
102
RTVSPost2010PropOp34
 70
     1
102
RTVSPost2010Prop35
280
     0
102
RTVSPost2010PropOp35
 70
     1
102
RTVSPost2010Prop36
280
     0
102
RTVSPost2010PropOp36
 70
     1
102
RTVSPost2010Prop37
 90
       50
102
RTVSPost2010PropOp37
 70
     1
102
RTVSPost2010Prop38
140
0.0
102
RTVSPost2010PropOp38
 70
     1
102
RTVSPost2010Prop39
140
1.0
102
RTVSPost2010PropOp39
 70
     1
102
RTVSPost2010Prop40
 90
        0
102
RTVSPost2010PropOp40
 70
     1
102
RTVSPost2010Prop41ColorIndex
 90
       18
102
RTVSPost2010Prop41ColorRGB
 90
        0
102
RTVSPost2010PropOp41
 70
     1
102
RTVSPost2010Prop42
 90
       50
102
RTVSPost2010PropOp42
 70
     1
102
RTVSPost2010Prop43
 90
        3
102
RTVSPost2010PropOp43
 70
     1
102
RTVSPost2010Prop44ColorIndex
 90
        5
102
RTVSPost2010Prop44ColorRGB
 90
      255
102
RTVSPost2010PropOp44
 70
     1
102
RTVSPost2010Prop45
280
     0
102
RTVSPost2010PropOp45
 70
     1
102
RTVSPost2010Prop46
 90
       50
102
RTVSPost2010PropOp46
 70
     1
102
RTVSPost2010Prop47
 90
       50
102
RTVSPost2010PropOp47
 70
     1
102
RTVSPost2010Prop48
 90
       50
102
RTVSPost2010PropOp48
 70
     1
102
RTVSPost2010Prop49
280
     0
102
RTVSPost2010PropOp49
 70
     1
102
RTVSPost2010Prop50
 90
       50
102
RTVSPost2010PropOp50
 70
     1
102
RTVSPost2010Prop51ColorIndex
 90
      256
102
RTVSPost2010Prop51ColorRGB
 90
-16777216
102
RTVSPost2010PropOp51
 70
     0
102
RTVSPost2010Prop52
140
1.0
102
RTVSPost2010PropOp52
 70
     0
102
RTVSPost2010Prop53
 90
        2
102
RTVSPost2010PropOp53
 70
     1
102
RTVSPost2010Prop54
  1
strokes_ogs.tif
102
RTVSPost2010PropOp54
 70
     1
102
RTVSPost2010Prop55
280
     0
102
RTVSPost2010PropOp55
 70
     1
102
RTVSPost2010Prop56
140
1.0
102
RTVSPost2010PropOp56
 70
     1
102
RTVSPost2010Prop57
140
1.0
102
RTVSPost2010PropOp57
 70
     1
  0
XRECORD
  5
192
102
{ACAD_REACTORS
330
191
102
}
330
191
100
AcDbXrecord
280
     1
102
RTVSPropertyOp0
 70
     1
102
RTVSPropertyOp1
 70
     1
102
RTVSPropertyOp2
 70
     1
102
RTVSPropertyOp3
 70
     1
102
RTVSPropertyOp4
 70
     1
102
RTVSPropertyOp5
 70
     1
102
RTVSPropertyOp6
 70
     1
102
RTVSPropertyOp7
 70
     1
102
RTVSPropertyOp8
 70
     1
102
RTVSPropertyOp9
 70
     1
102
RTVSPropertyOp10
 70
     1
102
RTVSPropertyOp11
 70
     1
102
RTVSPropertyOp12
 70
     1
102
RTVSPropertyOp13
 70
     1
102
RTVSPropertyOp14
 70
     1
102
RTVSPropertyOp15
 70
     1
102
RTVSPropertyOp16
 70
     1
102
RTVSPropertyOp17
 70
     1
102
RTVSPropertyOp18
 70
     1
102
RTVSPropertyOp19
 70
     1
102
RTVSPropertyOp20
 70
     1
102
RTVSPropertyOp21
 70
     1
102
RTVSPropertyOp22
 70
     1
102
RTVSPropertyOp23
 70
     1
102
RTVSPropertyOp24
 70
     1
102
RTVSPropertyOp25
 70
     1
102
RTVSPropertyOp26
 70
     1
102
RTVSPropertyOp27
 70
     1
102
RTVSPropertyOp28
 70
     1
102
RTVSPropertyOp29
 70
     1
102
RTVSPropertyOp30
 70
     1
102
RTVSPropertyOp31
 70
     1
102
RTVSPropertyOp32
 70
     1
102
RTVSPropertyOp33
 70
     1
102
RTVSPropertyOp34
 70
     1
102
RTVSPropertyOp35
 70
     1
102
RTVSPropertyOp36
 70
     1
102
RTVSPropertyOp37
 70
     1
102
RTVSPropertyOp38
 70
     1
102
RTVSPropertyOp39
 70
     1
102
RTVSPropertyOp40
 70
     1
102
RTVSPropertyOp41
 70
     1
102
RTVSPropertyOp42
 70
     1
102
RTVSPropertyOp43
 70
     1
102
RTVSPropertyOp44
 70
     1
102
RTVSPropertyOp45
 70
     1
102
RTVSPropertyOp46
 70
     1
102
RTVSPropertyOp47
 70
     1
102
RTVSPropertyOp48
 70
     1
102
RTVSPropertyOp49
 70
     1
102
RTVSPropertyOp50
 70
     1
102
RTVSPropertyOp51
 70
     0
102
RTVSPropertyOp52
 70
     0
102
RTVSPropertyOp53
 70
     1
102
RTVSPropertyOp54
 70
     1
102
RTVSPropertyOp55
 70
     1
102
RTVSPropertyOp56
 70
     1
102
RTVSPropertyOp57
 70
     1
102
RTVSPost2010Prop28
280
     0
102
RTVSPost2010PropOp28
 70
     1
102
RTVSPost2010Prop29
280
     1
102
RTVSPost2010PropOp29
 70
     1
102
RTVSPost2010Prop30
280
     1
102
RTVSPost2010PropOp30
 70
     1
102
RTVSPost2010Prop31
280
     0
102
RTVSPost2010PropOp31
 70
     1
102
RTVSPost2010Prop32
280
     0
102
RTVSPost2010PropOp32
 70
     1
102
RTVSPost2010Prop33
280
     0
102
RTVSPost2010PropOp33
 70
     1
102
RTVSPost2010Prop34
280
     0
102
RTVSPost2010PropOp34
 70
     1
102
RTVSPost2010Prop35
280
     0
102
RTVSPost2010PropOp35
 70
     1
102
RTVSPost2010Prop36
280
     0
102
RTVSPost2010PropOp36
 70
     1
102
RTVSPost2010Prop37
 90
       50
102
RTVSPost2010PropOp37
 70
     1
102
RTVSPost2010Prop38
140
0.0
102
RTVSPost2010PropOp38
 70
     1
102
RTVSPost2010Prop39
140
1.0
102
RTVSPost2010PropOp39
 70
     1
102
RTVSPost2010Prop40
 90
        0
102
RTVSPost2010PropOp40
 70
     1
102
RTVSPost2010Prop41ColorIndex
 90
       18
102
RTVSPost2010Prop41ColorRGB
 90
        0
102
RTVSPost2010PropOp41
 70
     1
102
RTVSPost2010Prop42
 90
       50
102
RTVSPost2010PropOp42
 70
     1
102
RTVSPost2010Prop43
 90
        3
102
RTVSPost2010PropOp43
 70
     1
102
RTVSPost2010Prop44ColorIndex
 90
        5
102
RTVSPost2010Prop44ColorRGB
 90
      255
102
RTVSPost2010PropOp44
 70
     1
102
RTVSPost2010Prop45
280
     0
102
RTVSPost2010PropOp45
 70
     1
102
RTVSPost2010Prop46
 90
       50
102
RTVSPost2010PropOp46
 70
     1
102
RTVSPost2010Prop47
 90
       50
102
RTVSPost2010PropOp47
 70
     1
102
RTVSPost2010Prop48
 90
       50
102
RTVSPost2010PropOp48
 70
     1
102
RTVSPost2010Prop49
280
     0
102
RTVSPost2010PropOp49
 70
     1
102
RTVSPost2010Prop50
 90
       50
102
RTVSPost2010PropOp50
 70
     1
102
RTVSPost2010Prop51ColorIndex
 90
      256
102
RTVSPost2010Prop51ColorRGB
 90
-16777216
102
RTVSPost2010PropOp51
 70
     0
102
RTVSPost2010Prop52
140
1.0
102
RTVSPost2010PropOp52
 70
     0
102
RTVSPost2010Prop53
 90
        2
102
RTVSPost2010PropOp53
 70
     1
102
RTVSPost2010Prop54
  1
strokes_ogs.tif
102
RTVSPost2010PropOp54
 70
     1
102
RTVSPost2010Prop55
280
     0
102
RTVSPost2010PropOp55
 70
     1
102
RTVSPost2010Prop56
140
1.0
102
RTVSPost2010PropOp56
 70
     1
102
RTVSPost2010Prop57
140
1.0
102
RTVSPost2010PropOp57
 70
     1
  0
XRECORD
  5
184
102
{ACAD_REACTORS
330
183
102
}
330
183
100
AcDbXrecord
280
     1
102
RTVSPropertyOp0
 70
     1
102
RTVSPropertyOp1
 70
     1
102
RTVSPropertyOp2
 70
     1
102
RTVSPropertyOp3
 70
     1
102
RTVSPropertyOp4
 70
     1
102
RTVSPropertyOp5
 70
     1
102
RTVSPropertyOp6
 70
     1
102
RTVSPropertyOp7
 70
     1
102
RTVSPropertyOp8
 70
     1
102
RTVSPropertyOp9
 70
     1
102
RTVSPropertyOp10
 70
     1
102
RTVSPropertyOp11
 70
     1
102
RTVSPropertyOp12
 70
     1
102
RTVSPropertyOp13
 70
     1
102
RTVSPropertyOp14
 70
     1
102
RTVSPropertyOp15
 70
     1
102
RTVSPropertyOp16
 70
     1
102
RTVSPropertyOp17
 70
     1
102
RTVSPropertyOp18
 70
     1
102
RTVSPropertyOp19
 70
     1
102
RTVSPropertyOp20
 70
     1
102
RTVSPropertyOp21
 70
     1
102
RTVSPropertyOp22
 70
     1
102
RTVSPropertyOp23
 70
     1
102
RTVSPropertyOp24
 70
     1
102
RTVSPropertyOp25
 70
     1
102
RTVSPropertyOp26
 70
     1
102
RTVSPropertyOp27
 70
     1
102
RTVSPropertyOp28
 70
     1
102
RTVSPropertyOp29
 70
     1
102
RTVSPropertyOp30
 70
     1
102
RTVSPropertyOp31
 70
     1
102
RTVSPropertyOp32
 70
     1
102
RTVSPropertyOp33
 70
     1
102
RTVSPropertyOp34
 70
     1
102
RTVSPropertyOp35
 70
     1
102
RTVSPropertyOp36
 70
     1
102
RTVSPropertyOp37
 70
     1
102
RTVSPropertyOp38
 70
     1
102
RTVSPropertyOp39
 70
     1
102
RTVSPropertyOp40
 70
     1
102
RTVSPropertyOp41
 70
     1
102
RTVSPropertyOp42
 70
     1
102
RTVSPropertyOp43
 70
     1
102
RTVSPropertyOp44
 70
     1
102
RTVSPropertyOp45
 70
     1
102
RTVSPropertyOp46
 70
     1
102
RTVSPropertyOp47
 70
     1
102
RTVSPropertyOp48
 70
     1
102
RTVSPropertyOp49
 70
     1
102
RTVSPropertyOp50
 70
     1
102
RTVSPropertyOp51
 70
     0
102
RTVSPropertyOp52
 70
     0
102
RTVSPropertyOp53
 70
     1
102
RTVSPropertyOp54
 70
     1
102
RTVSPropertyOp55
 70
     1
102
RTVSPropertyOp56
 70
     1
102
RTVSPropertyOp57
 70
     1
102
RTVSPost2010Prop28
280
     0
102
RTVSPost2010PropOp28
 70
     1
102
RTVSPost2010Prop29
280
     1
102
RTVSPost2010PropOp29
 70
     1
102
RTVSPost2010Prop30
280
     1
102
RTVSPost2010PropOp30
 70
     1
102
RTVSPost2010Prop31
280
     0
102
RTVSPost2010PropOp31
 70
     1
102
RTVSPost2010Prop32
280
     0
102
RTVSPost2010PropOp32
 70
     1
102
RTVSPost2010Prop33
280
     0
102
RTVSPost2010PropOp33
 70
     1
102
RTVSPost2010Prop34
280
     0
102
RTVSPost2010PropOp34
 70
     1
102
RTVSPost2010Prop35
280
     0
102
RTVSPost2010PropOp35
 70
     1
102
RTVSPost2010Prop36
280
     0
102
RTVSPost2010PropOp36
 70
     1
102
RTVSPost2010Prop37
 90
       50
102
RTVSPost2010PropOp37
 70
     1
102
RTVSPost2010Prop38
140
0.0
102
RTVSPost2010PropOp38
 70
     1
102
RTVSPost2010Prop39
140
1.0
102
RTVSPost2010PropOp39
 70
     1
102
RTVSPost2010Prop40
 90
        0
102
RTVSPost2010PropOp40
 70
     1
102
RTVSPost2010Prop41ColorIndex
 90
       18
102
RTVSPost2010Prop41ColorRGB
 90
        0
102
RTVSPost2010PropOp41
 70
     1
102
RTVSPost2010Prop42
 90
       50
102
RTVSPost2010PropOp42
 70
     1
102
RTVSPost2010Prop43
 90
        3
102
RTVSPost2010PropOp43
 70
     1
102
RTVSPost2010Prop44ColorIndex
 90
        5
102
RTVSPost2010Prop44ColorRGB
 90
      255
102
RTVSPost2010PropOp44
 70
     1
102
RTVSPost2010Prop45
280
     0
102
RTVSPost2010PropOp45
 70
     1
102
RTVSPost2010Prop46
 90
       50
102
RTVSPost2010PropOp46
 70
     1
102
RTVSPost2010Prop47
 90
       50
102
RTVSPost2010PropOp47
 70
     1
102
RTVSPost2010Prop48
 90
       50
102
RTVSPost2010PropOp48
 70
     1
102
RTVSPost2010Prop49
280
     0
102
RTVSPost2010PropOp49
 70
     1
102
RTVSPost2010Prop50
 90
       50
102
RTVSPost2010PropOp50
 70
     1
102
RTVSPost2010Prop51ColorIndex
 90
      256
102
RTVSPost2010Prop51ColorRGB
 90
-16777216
102
RTVSPost2010PropOp51
 70
     0
102
RTVSPost2010Prop52
140
1.0
102
RTVSPost2010PropOp52
 70
     0
102
RTVSPost2010Prop53
 90
        2
102
RTVSPost2010PropOp53
 70
     1
102
RTVSPost2010Prop54
  1
strokes_ogs.tif
102
RTVSPost2010PropOp54
 70
     1
102
RTVSPost2010Prop55
280
     0
102
RTVSPost2010PropOp55
 70
     1
102
RTVSPost2010Prop56
140
1.0
102
RTVSPost2010PropOp56
 70
     1
102
RTVSPost2010Prop57
140
1.0
102
RTVSPost2010PropOp57
 70
     1
  0
XRECORD
  5
1A4
102
{ACAD_REACTORS
330
1A3
102
}
330
1A3
100
AcDbXrecord
280
     1
102
RTVSPropertyOp0
 70
     1
102
RTVSPropertyOp1
 70
     1
102
RTVSPropertyOp2
 70
     1
102
RTVSPropertyOp3
 70
     1
102
RTVSPropertyOp4
 70
     1
102
RTVSPropertyOp5
 70
     1
102
RTVSPropertyOp6
 70
     1
102
RTVSPropertyOp7
 70
     1
102
RTVSPropertyOp8
 70
     1
102
RTVSPropertyOp9
 70
     1
102
RTVSPropertyOp10
 70
     1
102
RTVSPropertyOp11
 70
     1
102
RTVSPropertyOp12
 70
     1
102
RTVSPropertyOp13
 70
     1
102
RTVSPropertyOp14
 70
     1
102
RTVSPropertyOp15
 70
     1
102
RTVSPropertyOp16
 70
     1
102
RTVSPropertyOp17
 70
     1
102
RTVSPropertyOp18
 70
     1
102
RTVSPropertyOp19
 70
     1
102
RTVSPropertyOp20
 70
     1
102
RTVSPropertyOp21
 70
     1
102
RTVSPropertyOp22
 70
     1
102
RTVSPropertyOp23
 70
     1
102
RTVSPropertyOp24
 70
     1
102
RTVSPropertyOp25
 70
     1
102
RTVSPropertyOp26
 70
     1
102
RTVSPropertyOp27
 70
     1
102
RTVSPropertyOp28
 70
     1
102
RTVSPropertyOp29
 70
     1
102
RTVSPropertyOp30
 70
     1
102
RTVSPropertyOp31
 70
     1
102
RTVSPropertyOp32
 70
     1
102
RTVSPropertyOp33
 70
     1
102
RTVSPropertyOp34
 70
     1
102
RTVSPropertyOp35
 70
     1
102
RTVSPropertyOp36
 70
     1
102
RTVSPropertyOp37
 70
     1
102
RTVSPropertyOp38
 70
     1
102
RTVSPropertyOp39
 70
     1
102
RTVSPropertyOp40
 70
     1
102
RTVSPropertyOp41
 70
     1
102
RTVSPropertyOp42
 70
     1
102
RTVSPropertyOp43
 70
     1
102
RTVSPropertyOp44
 70
     1
102
RTVSPropertyOp45
 70
     1
102
RTVSPropertyOp46
 70
     1
102
RTVSPropertyOp47
 70
     1
102
RTVSPropertyOp48
 70
     1
102
RTVSPropertyOp49
 70
     1
102
RTVSPropertyOp50
 70
     1
102
RTVSPropertyOp51
 70
     0
102
RTVSPropertyOp52
 70
     0
102
RTVSPropertyOp53
 70
     1
102
RTVSPropertyOp54
 70
     1
102
RTVSPropertyOp55
 70
     1
102
RTVSPropertyOp56
 70
     1
102
RTVSPropertyOp57
 70
     1
102
RTVSPost2010Prop28
280
     0
102
RTVSPost2010PropOp28
 70
     1
102
RTVSPost2010Prop29
280
     1
102
RTVSPost2010PropOp29
 70
     1
102
RTVSPost2010Prop30
280
     1
102
RTVSPost2010PropOp30
 70
     1
102
RTVSPost2010Prop31
280
     0
102
RTVSPost2010PropOp31
 70
     1
102
RTVSPost2010Prop32
280
     0
102
RTVSPost2010PropOp32
 70
     1
102
RTVSPost2010Prop33
280
     0
102
RTVSPost2010PropOp33
 70
     1
102
RTVSPost2010Prop34
280
     0
102
RTVSPost2010PropOp34
 70
     1
102
RTVSPost2010Prop35
280
     0
102
RTVSPost2010PropOp35
 70
     1
102
RTVSPost2010Prop36
280
     0
102
RTVSPost2010PropOp36
 70
     1
102
RTVSPost2010Prop37
 90
       50
102
RTVSPost2010PropOp37
 70
     1
102
RTVSPost2010Prop38
140
0.0
102
RTVSPost2010PropOp38
 70
     1
102
RTVSPost2010Prop39
140
1.0
102
RTVSPost2010PropOp39
 70
     1
102
RTVSPost2010Prop40
 90
        0
102
RTVSPost2010PropOp40
 70
     1
102
RTVSPost2010Prop41ColorIndex
 90
       18
102
RTVSPost2010Prop41ColorRGB
 90
        0
102
RTVSPost2010PropOp41
 70
     1
102
RTVSPost2010Prop42
 90
       50
102
RTVSPost2010PropOp42
 70
     1
102
RTVSPost2010Prop43
 90
        3
102
RTVSPost2010PropOp43
 70
     1
102
RTVSPost2010Prop44ColorIndex
 90
        5
102
RTVSPost2010Prop44ColorRGB
 90
      255
102
RTVSPost2010PropOp44
 70
     1
102
RTVSPost2010Prop45
280
     0
102
RTVSPost2010PropOp45
 70
     1
102
RTVSPost2010Prop46
 90
       50
102
RTVSPost2010PropOp46
 70
     1
102
RTVSPost2010Prop47
 90
       50
102
RTVSPost2010PropOp47
 70
     1
102
RTVSPost2010Prop48
 90
       50
102
RTVSPost2010PropOp48
 70
     1
102
RTVSPost2010Prop49
280
     0
102
RTVSPost2010PropOp49
 70
     1
102
RTVSPost2010Prop50
 90
       50
102
RTVSPost2010PropOp50
 70
     1
102
RTVSPost2010Prop51ColorIndex
 90
      256
102
RTVSPost2010Prop51ColorRGB
 90
-16777216
102
RTVSPost2010PropOp51
 70
     0
102
RTVSPost2010Prop52
140
1.0
102
RTVSPost2010PropOp52
 70
     0
102
RTVSPost2010Prop53
 90
        2
102
RTVSPost2010PropOp53
 70
     1
102
RTVSPost2010Prop54
  1
strokes_ogs.tif
102
RTVSPost2010PropOp54
 70
     1
102
RTVSPost2010Prop55
280
     0
102
RTVSPost2010PropOp55
 70
     1
102
RTVSPost2010Prop56
140
1.0
102
RTVSPost2010PropOp56
 70
     1
102
RTVSPost2010Prop57
140
1.0
102
RTVSPost2010PropOp57
 70
     1
  0
ENDSEC
  0
EOF
